Song name
# A B C D E F G H I J K L M N O P Q R S T U V W X Y Z

David Guetta - Titanium tab

Artist: David Guetta (Collin McLoughlin cover)
Song: Titanium
Tabbed by: Ross McGauley
Tuning: E A D G B e
Capo 2nd fret

I edited the tab Collin's Facebook page makes, and here it is. Also, you might be like
me and come to Ultimate-Guitar.com before anywhere else to learn something! The tab his
page gives is a little confusing, with some notes relative to the capo, and some not. It 
also leaves out pieces here and there, which I've worked out and included. Download the
original from his Facebook and compare if you want.

-Intro-
e|-------------0--------------0---------4--|
B|--------0---------0-------0----4------5--|
G|------1-----------------4-------------6--|
D|--------------------------------------6--|
A|--------------------0h2---------------4--|
E|--0-----------------------------------x--|

e|--4---4h7p4----------------------|
B|----------------5h7p5---------5--|
G|--------------4---------6-4h6----|
D|---------------------------------|
A|----4-------4---------4----------|
E|---------------------------------|

e|-------------0--------------0---------4~-|
B|--------0---------0-------0----4------5~-|
G|------1-----------------4-------------6~-|
D|--------------------------------------6~-|
A|--------------------0h2---------------4~-|
E|--0-----------------------------------x~-|

-Verse-
You shout it out, but I canít hear a word you say...
Talkiní loud, not sayiní much...
e|--0~-----0~-----4~-------0~-----0~-----4~--|
B|--0~-----0~-----5~-------0~-----0~-----5~--|
G|--1~-----4~-----6~-------1~-----4~-----6~--|
D|--2~-----4~-----6~-------2~-----4~-----6~--|
A|--2~-----2~-----4~-------2~-----2~-----4~--|
E|--0~-----x~-----x~-------0~-----x~-----x~--|

Iím criticized, but all your bullets ricochet...
e|--------0-----------0-----------4----------4-----|
B|--------0-----------0-----------5----------5-----|
G|----1-----------4-----------6-------6--4---------|
D|-------------------------------------------------|
A|--------------2-----------4----------4-----------|
E|--0----------------------------------------------|

You shoot me down, but I get up...
e|--------0-----------0-----------4----------9-----|
B|--------0-----------0-----------5----------5-----|
G|----1-----------4-----------6-------6--4---------|
D|-------------------------------------------------|
A|--------------2-----------4--------4-4-----------|
E|--0----------------------------------------------|


-Chorus-
Iím bulletproof, nothing to lose...
Fire away, fire away...
e|--------0-----------0-----------4-------------4-----|
B|------0----0------0----0-0----5----5--------5-------|
G|----2-----------4-----------6---------6---6------6--|
D|----------------------------------------------------|
A|--0---------0-2---------2-4-------------4-----------|
E|----------------------------------------------------|

Ricochet, take your aim...
Fire away, fire away...
e|--------0-----------0-----------4----------------------|
B|------0----0-0----0----4-0----5----5--------5-------4--|
G|----2-----------4-----------6---------6---6-------4----|
D|-------------------------------------------------------|
A|--0---------0-2---------2-4-------------4-------2------|
E|-------------------------------------------------------|

You shoot me down, but I wonít fall...
I am Titanium!
e|--------0-----------0-----------4----------------------|
B|------0----0-0----0----4-0----5----5--------5-------4--|
G|----2-----------4-----------6---------6---6-------4----|
D|-------------------------------------------------------|
A|--0---------0-2---------2-4-------------4-----0h2------|
E|-------------------------------------------------------|

You shoot me down, but I wonít fall...
I am Titanium!
e|--------0-----------0-----------4-------7---------4--|
B|------0----0-0----0----4-0----5----5-------5---5h7---|
G|----2-----------4-----------6--------6-------6-------|
D|-----------------------------------------------------|
A|--0---------0-2---------2-4--------------------------|
E|-----------------------------------------------------|

(I am Titanium!)
e|--------0-----------0-----------4-------------4--------|
B|------0----0------0----4------5----5--------5---5------|
G|----2-----------4-----------6---------6---6-------6----|
D|-------------------------------------------------------|
A|--0-----------2-----------4-------------4--------------|
E|-------------------------------------------------------|

e|--------0-----------0------4~-|
B|------0----0-0----0---4----5~-|
G|----2-----------4----------6~-|
D|---------------------------6~-|
A|--0---------0-2------------4~-|
E|---------------------------x~-|

-Verse 2-
Cominí down, but itís you whoíll have further to fall...
e|--------0-----------0-----------4----------4-----|
B|--------0-----------0-----------5----------5-----|
G|----1-----------4-----------6-------6--4---------|
D|-------------------------------------------------|
A|--------------2-----------4----------4-----------|
E|--0----------------------------------------------|

Ghost town, and haunted love...
e|--------0-----------0-----------4----------9-----|
B|--------0-----------0-----------5----------5-----|
G|----1-----------4-----------6-----6-6--4---------|
D|-------------------------------------------------|
A|--------------2-----------4--------4-4-----------|
E|--0----------------------------------------------|

Raise your voice, stick and stones may break my bones...
e|--------0-----------0-----------4----------4-----|
B|--------0-----------0-----------5----------5-----|
G|----1-----------4-----------6-------6--4---------|
D|-------------------------------------------------|
A|--------------2-----------4----------4-----------|
E|--0----------------------------------------------|

Youíre talkiní loud, not sayiní much...
e|--------0-----------0-----------4----------9-----|
B|--------0-----------0-----------5----------5-----|
G|----1-----------4-----------6-----6-6--4---------|
D|-------------------------------------------------|
A|--------------2-----------4--------4-4-----------|
E|--0----------------------------------------------|

-Chorus 2-
Iím bulletproof, nothing to lose...
Fire away, fire away...
e|--------0-----------0-----------4-------------4-----|
B|------0----0------0----0-0----5----5--------5-------|
G|----2-----------4-----------6---------6---6------6--|
D|----------------------------------------------------|
A|--0---------0-2---------2-4-------------4-----------|
E|----------------------------------------------------|

Ricochet, take your aim...
Fire away, fire away...
e|--------0-----------0-----------4----------------------|
B|------0----0-0----0----4-0----5----5--------5-------4--|
G|----2-----------4-----------6---------6---6-------4----|
D|-------------------------------------------------------|
A|--0---------0-2---------2-4-------------4-------2------|
E|-------------------------------------------------------|

You shoot me down, but I wonít fall...
I am Titanium!
e|--------0-----------0-----------4----------------------|
B|------0----0-0----0----4-0----5----5--------5-------4--|
G|----2-----------4-----------6---------6---6-------4----|
D|-------------------------------------------------------|
A|--0---------0-2---------2-4-------------4-----0h2------|
E|-------------------------------------------------------|

You shoot me down, but I wonít fall...
I am Titanium!
e|--------0-----------0-----------4-------7---------4--|
B|------0----0-0----0----4-0----5----5-------5---5h7---|
G|----2-----------4-----------6--------6-------6-------|
D|-----------------------------------------------------|
A|--0---------0-2---------2-4--------------------------|
E|-----------------------------------------------------|

(I am Titanium!)
e|--------0-----------0-----------4-------------4--------|
B|------0----0------0----4------5----5--------5---5------|
G|----2-----------4-----------6---------6---6-------6----|
D|-------------------------------------------------------|
A|--0-----------2-----------4-------------4--------------|
E|-------------------------------------------------------|

e|--------0-----------0------4~-|
B|------0----0-0----0---4----5~-|
G|----2-----------4----------6~-|
D|---------------------------6~-|
A|--0---------0-2------------4~-|
E|---------------------------x~-|

-Bridge-
Stone hard, machine gun, firiní at the ones who run...
e|--------0-----------0-----------4-------------4-----|
B|------0----0------0----0-0----5----5--------5-------|
G|----2-----------4-----------6---------6---6------6--|
D|----------------------------------------------------|
A|--0---------0-2---------2-4-------------4-----------|
E|----------------------------------------------------|

Stone hard, as bullet-proof glaaaaaass!
e|--------0-----------0-----------4----------------------|
B|------0----0-0----0----4-0----5----5--------5-------4--|
G|----2-----------4-----------6---------6---6-------4----|
D|-------------------------------------------------------|
A|--0---------0-2---------2-4-------------4-------2------|
E|-------------------------------------------------------|

You shoot me down, but I wonít fall...
I am Titanium!
e|--------0-----------0-----------4----------------------|
B|------0----0-0----0----4-0----5----5--------5-------4--|
G|----2-----------4-----------6---------6---6-------4----|
D|-------------------------------------------------------|
A|--0---------0-2---------2-4-------------4-----0h2------|
E|-------------------------------------------------------|

You shoot me down, but I wonít fall...
I am Titanium!
e|--------0-----------0-----------4-------7---------4--|
B|------0----0-0----0----4-0----5----5-------5---5h7---|
G|----2-----------4-----------6--------6-------6-------|
D|-----------------------------------------------------|
A|--0---------0-2---------2-4--------------------------|
E|-----------------------------------------------------|

-Outro-
e|--------0-----------0-----------4-------------4--------|
B|------0----0------0----4------5----5--------5---5------|
G|----2-----------4-----------6---------6---6-------6----|
D|-------------------------------------------------------|
A|--0-----------2-----------4-------------4--------------|
E|-------------------------------------------------------|

e|--------0-----------0------4~-|
B|------0----0-0----0---4----5~-|
G|----2-----------4----------6~-|
D|---------------------------6~-|
A|--0---------0-2------------4~-|
E|---------------------------x~-|

Hope this helped! :D
ross_mcgauley@hotmail.com
Tap to rate this tab
# A B C D E F G H I J K L M N O P Q R S T U V W X Y Z