Song name
# A B C D E F G H I J K L M N O P Q R S T U V W X Y Z

David Guetta - Titanium tab

-------------------------------------------------------------------------------
                             TITANIUM - David Guetta ft. Sia
-------------------------------------------------------------------------------

Tabbed by: vincepham
E-mail: vinceepham@gmail.com

Tuning: Standard (3rd Capo)

Verse:

e|-------------------------------------------------------------------------------|
B|---------1p0------2/3-1-1-0-0----1---------1p0---------------------------------|
G|---0-0h2-------0---------------2-----0-0h2-------0-0h2-------------------------|
D|-------------------------------------------------------2~----------------------|
A|-------------------------------------------------------------------------------|
E|-------------------------------------------------------------------------------|
  You shout it loud, but i can't here a word you say. I'm talking loud, not saying much.

e|-------------------------------------------------------------------------------|
B|---------1p0------2/3-1-1-0-0----1---------1p0---------------------------------|
G|---0-0h2-------0---------------2-----0-0h2-------0-0h2-------------------------|
D|-------------------------------------------------------2~----------------------|
A|-------------------------------------------------------------------------------|
E|-------------------------------------------------------------------------------|
  I'm criticised, but all your bullets ricochet. You shoot me down, but i get up.

Chorus:

e|-----1-1-0-------0-0--------0--------------1-1-0-------0-0--------0------------|
B|-------------0-0-------0--0-----0-0h1--------------0-0-------0--0-----0-0h1----|
G|---2----------------------------------2~------------------------------------2~-|
D|-------------------------------------------------------------------------------|
A|-------------------------------------------------------------------------------|
E|-------------------------------------------------------------------------------|
  I'm bulletproof, nothing to lose. Fire away. Fire away. Ricochet, you take your aim. 
Fire away. Fire away.

e|----5-5-3~---0-0-3-3~---0-0-0-8~--7~--5~--5-5-3~---0-0-3-3~---0-0-0-8~--7~--5~-|
B|--1----------------------------------------------------------------------------|
G|-------------------------------------------------------------------------------|
D|-------------------------------------------------------------------------------|
A|-------------------------------------------------------------------------------|
E|-------------------------------------------------------------------------------|
  You shoot me down, but i wont fall. I am titanium. You shoot me down, but i wont fall. 
I am titanium.

************************************

| /   slide up
| \   slide down
| h   hammer-on
| p   pull-off
| ~   vibrato
| +   harmonic
| x   Mute note
| b   Bend
| pb  Pre-bend
| br  Bend release
| pbr Pre-bend release
| brb Bend release bend

************************************
Tap to rate this tab
# A B C D E F G H I J K L M N O P Q R S T U V W X Y Z