Song name
# A B C D E F G H I J K L M N O P Q R S T U V W X Y Z

David Guetta - Titanium tab

Capo on the 3rd fret

*For the intro, you can choose either of the two versions. Both sound great. The first 
one needs a little bit of stretching. The second one is just the simplified version of 
the first.

*For the verses, you can either do the strumming or repeat the intro four times.

Intro:

Version 1:

e -----------------|-----------------|-----------------|-----------------|
B -----3---5---3---|-----1---3---1---|-----3---5---3---|-----3---5---3---|
G ---0---0---0---0-|---0---0---0---0-|---2---2---2---2-|---2---2---2---2-|
D -----------------|-----------------|-----------------|-2---------------|
A -3---------------|-2---------------|-0---------------|-----------------|
E -----------------|-----------------|-----------------|-----------------|

e -----------------|-----------------|-----------------|-----------------|
B -----3---5---3---|-----1---3---1---|-----3---5---3-6-|---5---3---5-----|
G ---0---0---0---0-|---0---0---0---0-|---2---2---2-----|-2---2---2---2-5-|
D -----------------|-----------------|-----------------|-----------------|
A -3---------------|-2---------------|-0---------------|-----------------|
E -----------------|-----------------|-----------------|-----------------|

=============================================================================
=============================================================================

Version 2:

e ---------0-------|-----------------|---------0-------|---------0-------|
B -----3-------3---|-----1---3---1---|-----3-------3---|-----3-------3---|
G ---0---0---0---0-|---0---0---0---0-|---2---2---2---2-|---2---2---2---2-|
D -----------------|-----------------|-----------------|-2---------------|
A -3---------------|-2---------------|-0---------------|-----------------|
E -----------------|-----------------|-----------------|-----------------|

e ---------0-------|-----------------|---------0-----1-|---0-------0-----|
B -----3-------3---|-----1---3---1---|-----3-------3---|-------3-------1-|
G ---0---0---0---0-|---0---0---0---0-|---2---2---2-----|-2---2---2---2---|
D -----------------|-----------------|-----------------|-----------------|
A -3---------------|-2---------------|-0---------------|-----------------|
E -----------------|-----------------|-----------------|-----------------|


Verse 1:

C               G        Am             F
 You shout it loud, but I can't hear a word you say
C              G            Am     F
 I'm talking loud, not saying much
C           G         Am              F
 I'm criticized, but all your bullets ricochet
C               G          Am    F
 You shoot me down, but I get up


Chorus:

F            G                Em
 I'm bulletproof, nothing to lose
        Am
 Fire away, fire away
F       G                 Em
 Ricochet, you take your aim
        Am
 Fire away, fire away
F              G                 Em
 You shoot me down, but I won't fall
         Am
 I am titanium
F              G                 Em
 You shoot me down, but I won't fall
         Am
 I am titanium


Verse 2:

C        G              Am                 F
 Cut me down, but it's you who'll have further to fall
C        G          Am       F
 Ghost town and haunted love
C             G       Am                   F
 Raise your voice, sticks and stones may break my bones
C              G          Am       F
 I'm talking loud, not saying much


(Repeat Chorus)

F G Em
         Am
 I am titanium
F G Em
         Am
 I am titanium


Bridge:

F       G             Em
 Stone hard, machine gun
               Am
 Fired at the ones who run
F       G                   Em
 Stone hard, as bulletproof glass



F              G                 Em
 You shoot me down, but I won't fall
         Am
 I am titanium  (4x)


Outro:

F G Em Am

F G Em
         Am
 I am titanium
Tap to rate this tab
# A B C D E F G H I J K L M N O P Q R S T U V W X Y Z