Song name
# A B C D E F G H I J K L M N O P Q R S T U V W X Y Z

David Guetta - Titanium tab

Titanium- david guetta guitar tab
Intro (capo 3rd fret)                              instead of second Asus4 4 second time round 
E|-----0----|----------|-----0----|-----0----|     |-----0--1-0---0----|
B|---3---3--|---1-3-1--|---3---3--|---3---3--|     |---3---3----3--3-1-|
G|--0-0-0-0-|--0-0-0---|--2-2-2-2-|--2-2-2-2-|     |--2-2-2--2-2-2-----|
D|----------|----------|----------|----------| x2  |-------------------|
A|-3--------|-2--------|-0--------|-0--------|     |-0-----------------|
E|----------|----------|----------|----------|     |-------------------|
    
     C7         G/B         Asus4      Asus4

Or you could just play  C, G/B  Am Am  x2  

No capo

vocal
e|----------------------------------------------------|
B|-------4-3----6-4-3-3-----4---------4-3-------------|
G|-3-3-5-------3--------5-5-----3-3-5-------3-3-5-----|   x2
D|------------------------------------------------5---|
A|----------------------------------------------------|
E|----------------------------------------------------|

E|--4-4-3------3-3-----3------|
B|----------3-3----3-3---3-4--|
G|-5------------------------5-|   x2
D|----------------------------|
A|----------------------------|
E|----------------------------|

E|--8-8-6------6-6----------/11-10-8--|
B|-9-------8-8-------8-8-8------------|
G|------------------------------------|       x2
D|------------------------------------|
A|------------------------------------|
E|------------------------------------|

E|-6-----6----6-6------------|
B|--8---8-8------8-8-6-9-8---|
G|---------------------------|
D|---------------------------|
A|---------------------------|
E|---------------------------|

E|-6----6-6--8-8-8-8-8-8-8-6---|
B|--8--6----8------------------|
G|-----------------------------|
D|-----------------------------|   
A|-----------------------------|
E|-----------------------------|

E|--8-8-6------6-6----------/11-10-8--|
B|-9-------8-8-------8-8-8------------|
G|------------------------------------|       x4
D|------------------------------------|
A|------------------------------------|
E|------------------------------------|

i just imporovise the instrumental after this bit

thanks
Tap to rate this tab
 
# A B C D E F G H I J K L M N O P Q R S T U V W X Y Z