Song name
# A B C D E F G H I J K L M N O P Q R S T U V W X Y Z

David Guetta - Titanium tab

Standard E tuning. Capo on 3rd fret.

Now in the real song they palm-mute everything, but I prefer to play it without 
palm-muting, making it more of an acoustic version of it.


e|---------0-------------------------------0---------------0-------|
B|-----3-------3-------1---3---1-------3-------3-------3-------3---|
G|---0---0---0---0---0---0---0---0---2---2---2---2---2---2---2---2-|
D|-------------------------------------------------2---------------|
A|-3---------------2---------------0-------------------------------|
E|-----------------------------------------------------------------|

e|---------0-------------------------------0-----1---0-------0-----|
B|-----3-------3-------1---3---1-------3-------3---------3-------1-|
G|---0---0---0---0---0---0---0---0---2---2---2-----2---2---2---2---|
D|-----------------------------------------------------------------|
A|-3---------------2---------------0-------------------------------|
E|-----------------------------------------------------------------|
Tap to rate this tab
# A B C D E F G H I J K L M N O P Q R S T U V W X Y Z