Song name
# A B C D E F G H I J K L M N O P Q R S T U V W X Y Z

David Honeyboy Edwards - West Helena Blues tab

----------------------------------------------------------------------------
                "West Helena Blues" - Honeyboy Edwards
----------------------------------------------------------------------------
Album: White Windows
Tabbed by: Cris
Email: eighthnoot47@yahoo.com

Tuning: standard


        A (add6)        A (add6)         A (add6)            A (add6)
e|-----------------|----------------|-------------------|------------------|
B|-----------------|----------------|-------------------|------------------|
G|-----------------|----------------|-------------------|------------------|
D|-----------------|-7-7------------|-------------------|-7-7--------------|
A|----------7-7-9-9|----9-9-7-7-979-|-0-0-------7-7-9-9-|-----9-9-7-7-979--|
E|-5-5-5/9-9-------|----------------|-----5/9-9---------|------------------|

       D (add2)         D (add2)         A (add6)            A (add6)
e|-----------------|----------------|-------------------|------------------|
B|-----------------|----------------|-------------------|------------------|
G|---------2-2-----|---------2-2----|-------------------|------------------|
D|-0-0-/4-4-4-4-2--|-0-0-/4-4-4-4-2-|-------------------|------------------|
A|-----------------|----------------|-0-0------7-7------|-0-0------7-797---|
E|-----------------|----------------|-----5/9-9-9--9-7--|-----5/9-9-9------|

      E (add2)          D (add2)         A (add6)            A (add6)
e|-----------------|----------------|-------------------|----10--11--12---:|
B|-----------------|----------------|-------------------|----10--11--12---:|
G|--------444-4----|-------222-br4-2|-------------------|----11--12--13---:|
D|-2-2-2/6---6-6-4-|-0-0-/4---4-----|-----------------7-|----12--13--14---:|
A|-----------------|----------------|-0-0-----7-7-9-9---|-----------------:|
E|-----------------|----------------|----5/9-9----------|-----------------:|


| /  slide up
| \  slide down
| h  hammer-on
| p  pull-off
| b  bend
| br bend and release
| ~  vibrato
| +  harmonic
| x  Mute note

Official David Honeyboy Edwards website- http://www.davidhoneyboyedwards.com/
Tap to rate this tab
# A B C D E F G H I J K L M N O P Q R S T U V W X Y Z