Song name
# A B C D E F G H I J K L M N O P Q R S T U V W X Y Z

David J Swift - Humanity tab

Humanity
written by David J Swift
transcribed by John Mills

(Visit www.davidjswift.co.uk)


VERSE PICKING

|-----------0-----------------0---------|
|--------5-----5-----------5-----5------|
|-----4-----------4-----4-----------4---|
|--6-----------------6------------------|
|---------------------------------------|
|---------------------------------------|


|-----------0-----------------0---------|
|--------3-----3-----------3-----3------|
|-----3-----------3-----3-----------3---|
|--5-----------------5------------------|
|---------------------------------------|
|---------------------------------------|


CHORUS PICKING

|-----------0-----------0-----------0---|
|--------3-----3-----------3-----3------|
|-----2-----------2-----------2---------|
|--0------------------------------------|
|--------------------3------------------|
|---------------------------------------|

|-----------0-----------0-----0---------|
|--------3-----3-----------3-----3------|
|-----2-----------2-----------------2---|
|---------------------------------------|
|---------------------------------------|
|--1-----------------3------------------|


CHORUS END: E7 G,


LYRICS

While religion takes a fall for the worst
I pretend that I'm lost
Its so hard to reason, is it ever gonna change?
Then I turn back to you and I understand

How am I gonna change
You engraved it so deep
Now I lie to myself
I will never cheat again
Humanity

My perception of the world is at loss
Finding answers to crude
Is it no wander that I'm never gonna change?
Then I turn back to you and I understand

Under this smile is a life filled with shame
As the love turns to pain
Maybe I hunger for the words that you say
Now I stand here alone with myself to blame
Tap to rate this tab
# A B C D E F G H I J K L M N O P Q R S T U V W X Y Z