Song name
# A B C D E F G H I J K L M N O P Q R S T U V W X Y Z

David J Swift - Nothing Matters To Me tab

Nothing Matters to Me
written by David J Swift
transcribed by John Mills

(Visit www.davidjswift.co.uk)


INTRO RIFF

|--------------------------------------------------|
|-----7/8-----10--8-----7/8-----8--7---------------|
|-----7/9-----7---9-----7/9-----9--7---------------|
|--------------------------------------------------|
|--7-------7---------7-------7---------------------|
|--------------------------------------------------|


MAIN RIFF

|--------------------------------------------------|
|--------------------------------------------------|
|------------------------------5-------------------|
|------------------------------5--5----------------|
|-----5/7-----5--7-----5/7-----3--5----------------|
|--0-------0--------0-------0-----3----------------|


BRIDGE: A C, x4
CHORUS: E C G, E A G, x2


LYRICS

I will never be your slave
You can not control me
Keep your lies away from me
You have nothing that I need

I close my eyes until I can see
We have all been deceived
Nothing matters to me

You could die before you wake
From the cradle to the grave
Count the money that you make
Stand back until you fade away
Tap to rate this tab
# A B C D E F G H I J K L M N O P Q R S T U V W X Y Z