Song name
# A B C D E F G H I J K L M N O P Q R S T U V W X Y Z

David Lee Roth - Ice Cream Man tab

Help us improve GuitareTab! Take a short survey!
This is the intro of this song

its my first tab so tell me if you think its right
codeman2346@yahoo.com


----------------------------|
----------------------------|
----------------------------|
----------------0-----------|
--------2---4-----4---2-----|
-0---4-------------------4--|

play about four times then switch to...

----------------------------|
----------------------------|
----------------0-----------|
--------2---4-----4---2-----|
-0---4-------------------4--|
----------------------------|

play this about 2 times then swich back to...


----------------------------|
----------------------------|
----------------------------|
----------------0-----------|
--------2---4-----4---2-----|
-0---4-------------------4--|

and thats all i know of the song so far
Related for Ice Cream Man tab