Song name
# A B C D E F G H I J K L M N O P Q R S T U V W X Y Z

David Lee Roth - Just A Gigolo tab

This part can be played on reg. guitar or bass.

Beat: 1 & 2 & 3 & 4 &
e |----------------------------|
B |----------------------------|
G |----------------------------|  x 2
D |----------------------------|
A |----3-36-6-33--------46-66-4|
E |-4-4-----------6-66---------|

That's it.  Fairly easy.  Or you can try 
an add hammers or pull offs.

e |-----------------------------|
B |-----------------------------|
G |-----------------------------|
D |-----------------------------|
A |----3-3h6-6-33-------4h6-66p4|
E |-4-4------------6-66---------|
Tap to rate this tab
# A B C D E F G H I J K L M N O P Q R S T U V W X Y Z