David Lee Roth - Drop In The Bucket tab

-----------------------------------------------------------------
Drop In The Bucket (INTRO) - David Lee Roth
-----------------------------------------------------------------
Tabbed by: ikjetil
Email:


e|---------------------------------------------------------------|
B|---------------------------------------------------------------|
G|---------2--------------------------------------4-/4-----------|
D|-------2---2-4-4---2---2---4-4\2---4p2-4bp2-----4-/4-----------|
A|-4p2h4-----2-------2---2---4-4\2---4p2------4-2----------------|
E|-----------------2---2---2-------2-----------------------------|

e|---------------------------------------------------------------|
B|---------------------------------/7-7-5-4----------------------|
G|---------------------------------/6-6-4-4-4--------------------|
D|-4\2-4-4p2---2---2---4-4\2---4p2--------4-4--------------------|
A|-----4-4p2---2---2---4-4\2---4p2-------------------------------|
E|-----------2---2---2-------2-----------------------------------|

e|---------------------------------------------------------------|
B|---------------------------------------------------------------|
G|---------------------------------------4-/4--------------------|
D|-2-4-4p2---2---2---4-4p2---4p2-4b2-----4-/4--------------------|
A|-2-4-4p2---2---2---4-------4p2-----4-2-------------------------|
E|---------2---2---2-------2-------------------------------------|

e|---------------------------------------------------------------|
B|-------------------/7-----------4------------------------------|
G|-------------------/6-6p4-4-3-1-4------------------------------|
D|-2-4-4p2---2---2----------4-4-2-4-2-2--------------------------|
A|-2-4-4p2---2---2-----------------------------------------------|
E|---------2---2---2---------------------------------------------|


Tablature Legend
----------------
 h   - hammer-on
 p   - pull-off
 b   - bend
 /\  - slide into or out of (from/to "nowhere")
Tap to rate this tab
 
# A B C D E F G H I J K L M N O P Q R S T U V W X Y Z