Song name
# A B C D E F G H I J K L M N O P Q R S T U V W X Y Z

David Lee Roth - Perfect Timing tab

-------------------------------------------------------------------------------
                             Perfect Timing - David Lee Roth
-------------------------------------------------------------------------------
Tabbed by: cjog210
E-mail: cjog210@gmail.com

Tuning: Standard

Riff 1
Repeat 2x

e|---------------------------------------------------------------------------|
B|---------------------------------------------------------------------------|
G|----9----7----------9----7-----------7------5------------------------------|
D|----9----7----------9----7-----------7------5------------------------------|
A|----7----5----------7----5-----------5------3------------------------------|
E|----0---(0)---------0---(0)----------0-----(0)-----------------------------|

Riff 2
Repeat 2x (This riff also gets played during the chorus)

e|---------------------------------------------------------------------------|
B|---------------------------------------------------------------------------|
G|----9----7----------9----7----------9---7-----7------5---------------------|
D|----9----7----------9----7----------9---7-----7------5---------------------|
A|----7----5----------7----5----------7---5-----5------3---------------------|
E|---------------------------------------------------------------------------|

Play this after the 1st repeat

e|---------------------------------------------------------------------------|
B|---------------------------------------------------------------------------|
G|-----7pb9--7pb9b7p5----7pb9--7pb9b7p5--------------------------------------|
D|---------------------------------------------------------------------------|
A|---------------------------------------------------------------------------|
E|---------------------------------------------------------------------------|

Play this after the 2nd repeat (It's triplets)

e|-----10p7------------------------------------------------------------------|
B|----------10p7-------------------------------------------------------------|
G|---------------9p7---------------------------------------------------------|
D|-------------------9~~-----------------------------------------------------|
A|---------------------------------------------------------------------------|
E|---------------------------------------------------------------------------|


************************************

| /   slide up
| \   slide down
| h   hammer-on
| p   pull-off
| ~   vibrato
| +   harmonic
| x   Mute note
| b   Bend
| pb  Pre-bend
| br  Bend release
| pbr Pre-bend release
| brb Bend release bend

************************************
Tap to rate this tab
# A B C D E F G H I J K L M N O P Q R S T U V W X Y Z