Song name
# A B C D E F G H I J K L M N O P Q R S T U V W X Y Z

David Lee Roth - Yankee Rose tab

Help us improve GuitareTab! Take a short survey!
Opening Chord
-1-----------------------------------------------------------------------|
-1-----------------------------------------------------------------------|
-0-----------------------------------------------------------------------|
-3-----------------------------------------------------------------------|
-3-----------------------------------------------------------------------|
-------------------------------------------------------------------------|

Talking Guitar Bit
-------------------------------------------------------------------------|
--12b-10b----------------------------------------------------------------|
-------------------------------------------------------------------------|
-------------------------------------------------------------------------|
-------------------------------------------------------------------------|
-------------------------------------------------------------------------|

-------------------------------------------------------------------------|
-11p10p9s8-9b------------------------------------------------------------|
-------------------------------------------------------------------------|
-------------------------------------------------------------------------|
-------------------------------------------------------------------------|
-------------------------------------------------------------------------|

-------------------------------------------------------------------------|
-------------------------------------------------------------------------|
-s12~--------------------------------------------------------------------|
-------------------------------------------------------------------------|
-------------------------------------------------------------------------|
-------------------------------------------------------------------------|

-------------------------------------------------------------------------|
--s21-s19----------------------------------------------------------------|
-------------------------------------------------------------------------|
-------------------------------------------------------------------------|
-------------------------------------------------------------------------|
-------------------------------------------------------------------------|
(Or slide to somewhere near those two frets)

-------------------------------------------------------------------------|
-b17-b16-15-b13-b12-b11-b10----------------------------------------------|
----------------------------b12-b11-b10----------------------------------|
----------------------------------------12s-slide-up-the-neck------------|
-------------------------------------------------------------------------|
-------------------------------------------------------------------------|

On this next bit you need to bring the bar right down and just before you raise it 
on the note.
-------------------------------------------------------------------------|
-------------------------------------------------------------------------|
-h4-h7-h12-Raise-the-bar-a-little----------------------------------------|
-------------------------------------------------------------------------|
-------------------------------------------------------------------------|
-------------------------------------------------------------------------|
Related for Yankee Rose tab