Song name
# A B C D E F G H I J K L M N O P Q R S T U V W X Y Z

David Lehr - Everything To Me tab

Capo on 1 [Listen for timing]

Intro
e---7------------0--|
b---0--7------3--5--|
g-0----0------0--0--|
d-5----0---------5--|
a------5----2----3--|
e-------------------| x3 then

e---7---------0~-|
b---0--7--7~--5~-|
g-0----0--0~--0~-| let ring
d-5----0----0-5~-|
a------5----5-3~-|
e----------------|

Verse- same as Intro [x4]

Chorus
e-----------2-2--0~--|
b-3-3--3----3-3--5~--|
g-2-2--2----0-0--0~--|
d-0-0--0----0-0--5~--|
a-0-0--0----2----3~--|
e--------------------| x4

Post Chorus
e-7-7-------0-0~-|
b-0-0--7-7--5-5~-|
g-0-0--0-0--0-0~-|
d-5-5--0-0--5-5~-|
a------5-5--3-3~-|
e----------------|

Intro x2
Verse x4
Chorus x4
Post-Chorus

Post-Chorus 2
e---------------0~     e-3-3---5-5------0~-|
b---8--7-----3--5~     b-3-3---3-3----3-5~-|
g---0--0-----0--0~     g-0-0---0-0----0-0~-|
d---5--0--------5~     d-2-2---4-4------5~-|
a-7----5----2---3~     a-2-2---5-5---2--3~-|
e----------------~ x2  e-0-0---------------|

e------------0-0~-|
g--8---7--7--5-5~-|
g--0---0--0--0-0~-|
d--5---0--0--5-5~-|
a------5--5--3-3~-|
e-7---------------|

Verse x4

Last Chorus
e-7-7--7---------0~--|
b-0-0--0---7-7---5~--|
g-0-0--0---0-0---0~--|
d-5-5--5---0-0---5~--|
a----------5-5---3~--|
e--------------------| x4
Tap to rate this tab
# A B C D E F G H I J K L M N O P Q R S T U V W X Y Z