Song name
# A B C D E F G H I J K L M N O P Q R S T U V W X Y Z

David Lindley - Quarter Of A Man chords

Highlighted       Show chord diagrams
---------------------------------------------------------------------------
                Quarter of a Man- David Lindley
---------------------------------------------------------------------------
Tabbed by: maguri
Tuning: Standard

David Lindley
Quarter of a Man (1981)
(Bob Frizz Fuller)

From: "El Rayo X"

---------------------------------------------------------------------------

INTRO
  F                G(/F)            F                Em
  1 + 2 + 3 + 4 +  1 + 2 + 3 + 4 +  1 + 2 + 3 + 4 +  1 + 2 + 3 + 4 +
e|5---------------|7---------8p7---|5---------------|3---------------|
B|6---------------|8---------8-----|6---------------|5---------------|
G|5---------------|7---------------|5---------------|4---------------|
D|----------------|----------------|----------------|----------------|
A|----------------|----------------|----------------|----------------|
E|----------------|----------------|----------------|----------------|
  F                G(/F)            F             Em
  1 + 2 + 3 + 4 +  1 + 2 + 3 + 4 +  1 + 2 + 3 + 4 +  1 + 2 + 3 + 4 +
e|5---------------|7-----8p7-------|5-------------3-|----------------|
B|6---------------|8-----------8---|6-------------5-|----------------|
G|5---------------|7---------------|5-------------4-|----------------|
D|----------------|----------------|----------------|----------------|
A|----------------|----------------|----------------|----------------|
E|----------------|----------------|----------------|----------------|

LINK
  1 + 2 + 3 + 4 +  1 + 2 + 3 + 4 +  
e|----------------|----------------|
B|1-----------0-1-|----0-1---------|
G|2-----------0-2-|----0-2---------|
D|3-----------3-3-|----3-3---------|
A|3---------------|----------------|
E|1---------------|----------------|

---------------------------------------------------------------------------
CHORDS

          E-A-D-G-B-E
G/F       1-x-0-0-0-x
Am/F      1-x-2-2-1-x

---------------------------------------------------------------------------

INTRO
| F | G/F | F | Em |
| F | G/F | F | Em |
| Am | % | Am F | Am |
| Am | % | Am F | Am Em |

          Am
There's a quarter of a man in the market
       G                        Am
With a quarter of a car so itís easy to park it
   Am                                   F   [LINK: see above]
He gets to the counter he saves what he can 
       F                                             [Am]
But he only saves a quarter he's a quarter of a ma---an

| Am | % | Am F | Am |
| Am | % | Am F | Am Em |

         Am
Now this quarter of a man he got fired
    G                    Am
The next damn day he got hired
    Am                         F     [LINK: see above]
The only thing wrong with this plan
   F                                           [Am]
He only gets a quarter he's a quarter of a ma---an

G     C        G      Am
Every day he's on the street
        C            G         Am
Too few quarters too little to eat
        C          G          Am
He's so little the people all stare
       F                         [Am]
But he only pays a quarter fare, oh

| Am | % | Am F | Am |
| Am | % | Am F | Am Em |

| Am | % | Am F | Am |
| Am | % | Am F | Am Em |

         Am
Now the quarter of a man's on vacation
    G                    Am
But he still gets his ration
    Am                         F               [LINK: see above]
When he gets to the market he pays what he can
   F                                           [Am]
But he only saves a quarter cause he's a quarter of a man

G     C        G      Am
Every day he's on the street
        C            G         Am
Too few quarters too little to eat
        C          G          Am
He's so little the people all stare
       F                         [Am]
But he only pays a quarter fare, oh

| Am | % | Am F | Am |
| Am | % | Am F | Am Em |
| Am | % | Am F | Am |
| Am | % | F | F |

| F | G/F | Am/F | F |
| F | G/F | Am/F | F |
(repeat and fade)
Tap to rate this tab
# A B C D E F G H I J K L M N O P Q R S T U V W X Y Z