Song name
# A B C D E F G H I J K L M N O P Q R S T U V W X Y Z

David M Hanlon - Druid Ii Enlightenment tab

                                The music of 'Druid II: Enlightenment'
                                                by
                                        David M. Hanlon

Tuning: EADGBe (standard)
        No capo

1st part (The 1st part goes throughout the song in the background.)
e----------------------|----------------------|
B----------------------|----------------------|
G----------------------|----------------------|
D--5----------------5--|--5----------------5--|
A-----5--6----8--8-----|-----5--6----8--8-----|
E----------------------|----------------------|
   G  D  D#   F  F  G     G  D  D#   F  F  G   

e--------------------------|-------------------|
B--------------------------|-------------------|
G--------7-----------------|-------------------|
D--5--5-----------------5--|--5----------------|
A-----------6--8--5--8-----|-----5--6--8--5----|
E--------------------------|-----------------3-|
   G  G  D  D# F  D  F  G     G  D  D# F  D  G

2nd part
e----------------8---------------------|
B--8--10--11--8-----11--10--11--10--8--|
G--------------------------------------|
D--------------------------------------|
A--------------------------------------|
E--------------------------------------|
   G  A   A#  G  C  A#  A   A#  A   G

e----------------8--------------8--10--10--11--10--11--10--8------8---------|
B--8--10--11--8-----11--10--11--------------------------------11-----10--8--|
G---------------------------------------------------------------------------|
D---------------------------------------------------------------------------|
A---------------------------------------------------------------------------|
E---------------------------------------------------------------------------|
   G  A   A#  G  C  A#  A   A#  C  D   D   D#  D  D#   D   C  A#  C  A   G

e----------------8-------------------------|
B--8--10--11--8-----11--10--11--10------8--|
G-----------------------------------10-----|
D------------------------------------------|
A------------------------------------------|
E------------------------------------------|
   G  A   A#  G  C# A#  A   A#  A   F   G  

3rd part
e---------------------------------------|-----------------------------------|
B---------------------------------------|-----------------------------------|
G-------------8----7--5-----------5-----|--------------8--7--5--------------|
D-5--5--7--8-------------8--7--8-----7--|--5--5--7--8-----------8--7--8-----|
A---------------------------------------|-----------------------------------|
E---------------------------------------|--------------------------------3--|
  G  G  A  A# D#   D  C  A# A  A# C  A     G  G  A  A# D# D  C  A# A  A# G

e-----------------------------------|--------------------------------------|
B-----------------------------------|--------------------------------------|
G--------------8--7--5--------------|--------------8--8--7--5--------------|
D--5--7--8--5-----------8--7--8--8--|--5--5--7--8--------------8--7--8--5--|
A-----------------------------------|--------------------------------------|
E-----------------------------------|--------------------------------------|
   G  A  A# G  D# D  C  A# A  A# A#    G  G  A  A# D# D# D  C  A# A  A# G

4th part
e------------------|--10----8-----------------10--11--8-------------|-
B------------------|-----------11--8----8--8-------------11--10--8--|-
G------------------|------------------------------------------------|-
D--5----8----7--5--|------------------------------------------------|-
A------------------|------------------------------------------------|-
E------------------|------------------------------------------------|-
   G    A#   A  G     D     C  A#  G    G  G  D   D#  C  A#  A   G   

e-------------------8------|
B--8----------11--------8--|
G-----7--8-----------------|
D--------------------------|
A--------------------------|
E--------------------------|
   G  D  D#   A#    C   G

And repeat once again from the 1st part.

                            This guitar tablature made by Zsolt Peter Kodner.
Tap to rate this tab
 
# A B C D E F G H I J K L M N O P Q R S T U V W X Y Z