Song name
# A B C D E F G H I J K L M N O P Q R S T U V W X Y Z

David Meshow - Do You Feel It tab

Do You Feel it - David MeShow
(also called guitar and bass with feet.. on youtube)

eb|------------------------------------------------------------------------|
Bb|------------------------------------------------------------------------|
Gb|------------------------------------------------------------------------|
Db|-------------------------------6br6--------------------------------6br6-|
Ab|-7~~~~6~~~~6--7~~~~7p6-6h7--6-7------7--9-7-6----7~~~~7p6-6h7--6-7------|
Eb|-----------------------------------------------7------------------------|

eb|---------------------------------------------------|
Bb|---------------------------------------------------|
Gb|---------------------------------------------------|
Db|-7p6-9p6-7p6-9p6-6h7p6-4--4-4-4h6p4----------------|
Ab|------------------------------------7--7-7-7p6-6h7-|
Eb|---------------------------------------------------|

Thats all I got but I know that it is right, its the first tab of this song on the 
so hopefully it helps! Im trying to work on the rest of it.. So hopefully ill have the rest 
it soon :p

Tabbed by Bloodhorn
Tap to rate this tab
# A B C D E F G H I J K L M N O P Q R S T U V W X Y Z