Song name
# A B C D E F G H I J K L M N O P Q R S T U V W X Y Z

David Meshow - Lost In Space tab

This is the intro to lost in space. i just tabbed this right now and it took me about 5
it sounds pretty accurate but im not sure if its 100%. I wasn't going to submit this
its only a small small part of the song but it's alot better than nothing.and maybe 
give someone else who is better at tabbing an idea of how the song is started. thanks for
my tab. and leave your comments or rate.

Tune your guitar 1 & 1/2 down. Do not play in standard tuning or it will not sound right.


|---------------------------------------------------------|
|---------------------------------------------------------|
|---------------------------------------------------------|
|------------------11--9h11p9-14--9~----------------------|
|-11---14~--6s7----0------------------11--9-11-7b9r7--2---|
|-0-----------------------------------0---------------0---|


-------------------------------------------------------------------|
-------------------------------------------------------------------|
-------------------------------------------------------------------|
---------11--14p11---16b18-----------------------------------------|
--1\2----0---------0----------11------11h14p11---11h12p11---9h11p9-|
------------------------------0---0-0----------0----------0--------|

-----------------|
-----------------|
-----------------|
-11-----9h11p9-7-|
-0--0-0----------|
-----------------|

after this it gets to be a little more technical. too hard for me to tab out by ear.
Tap to rate this tab
 
# A B C D E F G H I J K L M N O P Q R S T U V W X Y Z