Song name
# A B C D E F G H I J K L M N O P Q R S T U V W X Y Z

David Pomeranz - Born For You tab

Help us improve GuitareTab! Take a short survey!
Try Lang:

Born for you by David Pomeranz

Tab my Mark Jayson Cabaņog:

Solo:


E--------------------------------------|
B--------------------------------------|
G-7-9-10-10/12-5-5~----5-7--7-7-7/9-9--|
D-------------------7------------------|
A--------------------------------------|
E--------------------------------------|

E--------------------------------------|
B--------------------------------------|
G-9-10-12-12-5-5~------5-7--7-7-7/9-9--|
D------------------7-------------------|
A--------------------------------------|
E--------------------------------------|

E--------------------------------------|
B--------------------------------------|
G-9-7-5------10-10-9-9-7-7-----10-9-9--|
D--------9-7----------------10---------|
A--------------------------------------|
E--------------------------------------|

E--------|-----------------------------|
B--------|-------5-5-5/6-3~-------5-3--|
G-7-7-5--|-5-4-2------------5-4-2------|
D--------|-----------------------------|
A--------|-----------------------------|
E--------|-----------------------------|

E----------------|
B----6-3------2--|
G-5------5-4-----|
D----------------|
A----------------|
E----------------|


                        try ko lang ^^!~
                may mali pala ung first tab ko huhu...
                     correct nyo nalang.hehe
Related for Born For You tab