Song name
# A B C D E F G H I J K L M N O P Q R S T U V W X Y Z

David Pomeranz - Love Is All That Matters tab

This is only the chorus part but it sounds good....
enjoy!!!!..

any comment or suggestion please don't hesitate to inform me at:
rrdie_000@yahoo.com.ph

e|-----------7-5-4-2----------|
B|-5-7-9-5-7---------4-5-7----|
G|----------------------------|
D|----------------------------|
A|----------------------------|
E|----------------------------|

e|-----------7-5-4-2----------|
B|-5-7-9-5-7---------4-5------|
G|----------------------------|
D|----------------------------|
A|----------------------------|
E|----------------------------|

PLEASE RATE!!... :)
Tap to rate this tab
 
# A B C D E F G H I J K L M N O P Q R S T U V W X Y Z