Song name
# A B C D E F G H I J K L M N O P Q R S T U V W X Y Z

David Pomeranz - Got To Believe In Magic tab

chorus lang po ito

|---3-3-3-3-3-3------1-0-1-3-1-0------0--------0--------------|
|---------------1----------------3-1-------0-1---3-3-1-1-0----|
|-------------------------------------------------------------|
|-------------------------------------------------------------|
|-------------------------------------------------------------|
|-------------------------------------------------------------|

---3-3-3-3-5-3------1-0-1-3-1-0------0--------0----------------------|
---------------1----------------3-1-------0-1---3-3-1-1-0-3-3-1------|
---------------------------------------------------------------------|
---------------------------------------------------------------------|
---------------------------------------------------------------------|
---------------------------------------------------------------------|
Tap to rate this tab
# A B C D E F G H I J K L M N O P Q R S T U V W X Y Z