Song name
# A B C D E F G H I J K L M N O P Q R S T U V W X Y Z

David Pomeranz - Got To Believe In Magic tab

Got To Believe - David Pomeranz (Arranged by Jorell Prospero)

Video: http://www.youtube.com/watch?v=7f1BLur4YDk


Tuning: Standard

Capo: 3rd Fret


INTRO:

e--3-------3----------2--3--2-----0----------0-------------------3-------------|
B-------------3----------------3----------------1----0--1--0--1----1-----------|
G-------0---------0-----------------------0-------0---------------------2------|
D-----0---------0-----0-----------------2---------------0------------0---------|
A------------------------------------3-----------------------------------------|
E--3---------------------------------------------------------------------------|

e--3-----3----------2--3--5--2------0--------0-----------------3-------3--2-------|
B------------3-------------------3-------------1---0--1--0--1----1-----1--1-------|
G-----0----------0-------------------------0-----0-------------------2-2--2-------|
D----0---------0----0----------0---------2------------0------------0---0--0-------|
A--------------------------------------3------------------------------------------|
E--3------------------------------------------------------------------------------|



VERSE:

e-----------3---------------------------------------------------------------|
B--0--3--3-----1---------1--------------------------------------------------|
G--------------------------0------------------------------------------------|
D--------------------2-------2----------------------------------------------|
A-----------------3------------3--------------------------------------------|
E--3------------------------------------------------------------------------|

e-----------3---------------------------------------------------------------|
B--0--3--3-----1---------1--------------------------------------------------|
G--------------------------0------------------------------------------------|
D--------------------2-------2----------------------------------------------|
A-----------------3------------3--------------------------------------------|
E--3------------------------------------------------------------------------|


e--------------2--3------------5---7--7------5-------------------------------|
B--0--3--3-----3-----------0-----------------2-------------------------------|
G------------------------0-------------------2-------------------------------|
D----------------------------------------------------------------------------|
A-----------------------------------------0----------------------------------|
E--3--------2---------0--------0---------------------------------------------|

e--0--2--2------3--0--------2-0----------------------------------------------|
B-------------------------3-----3--------------------------------------------|
G-----------------------2---------2------------------------------------------|
D--------------------0-------------------------------------------------------|
A--3--------3----------------------------------------------------------------|
E----------------------------------------------------------------------------|


e---0--2--2------3--3------7--0-----2h3--------------------------------------|
B----------------------------------------------------------------------------|
G----------------------------------------------------------------------------|
D----------------------0---------0-------------------------------------------|
A------------3---------------------------------------------------------------|
E---3------------------------------------------------------------------------|

e---3------3-----------------------------------------------------------------|
B---3----------3------1-----1----------0-----0---------1---------------------|
G--------0---------0------0-----0----------0----0----------------------------|
D------0---------0------0---------0------0--------0--------------------------|
A-----------------------------------2---------------2------------------------|
E---3-----------------3----------------3---------------3---------------------|

REPEAT VERSE....



CHORUS:


e------------------------------------------------------------2--------------------|
B-3--3--3--3--3--3--------1--0--1--3--1----0-------------0---3---------0----------|
G-4-------------------0---2--2--2--2--2-------2--0--2--------2-----2-0------------|
D---------------------1---2----------------------------------0--0-----------------|
A-2-----------------------0--------------2----------------------------------------|
E-------------------0----------------------------------0--------------------------|

e-----------------2--0---------------------------------------------------|
B----------------3-----3-------------------------------------------------|
G----2--2--0----2--------2-----------------------------------------------|
D-------------0----------------------------------------------------------|
A--3---------------------------------------------------------------------|
E------------------------------------------------------------------------|

e----------------------------------------------------------------2--------------------|
B-3--3--3--3--3--3--------1--0--1--3--1----0---------0-----------3---------0----------|
G-4-------------------0---2--2--2--2--2-------2--0---------0-----2-----2-0------------|
D---------------------1---2------------------------------0---0---0--0-----------------|
A-2-----------------------0--------------2--------------------------------------------|
E-------------------0----------------------------------0------------------------------|

e--------------------------------------------------------------------------|
B--------------------------------------------------------------------------|
G----2--2--0----0----0--2--------------------------------------------------|
D---------------0----------------------------------------------------------|
A--3---------------9-------------------------------------------------------|
E--------------------------------------------------------------------------|

e---3------3-----------------------------------------------------------------|
B---3----------3------1-----1----------0-----0---------1---------------------|
G--------0---------0------0-----0----------0----0----------------------------|
D------0---------0------0---------0------0--------0--------------------------|
A-----------------------------------2---------------2------------------------|
E---3-----------------3----------------3---------------3---------------------|

REPEAT VERSE.... THEN CHORUS AGAIN..


SOLO PART:

e-5-----5-------5---3--2---3-----3--------3--2-0--2---2----------------------|
B---------2--2----------------------0--0----------3---3----------------------|
G-------------------------------------------------2-2------------------------|
D-----------------------------2-------------------0--------------------------|
A----4-----------------------------------------------------------------------|
E-2----------2-------------0-----------0-------------------------------------|

e-------2--0----------------1-----3----------------------------------------|
B-------------3---3-----2---------0----------------------------------------|
G--2--2--------------2--2------0-------------------------------------------|
D-----0--------------------------------------------------------------------|
A-----------------0-----0---2----------------------------------------------|
E--------------------------------------------------------------------------|

THEN MOVE THE CAPO TO 5TH FRET. SAME CHORUS.. BACK TO INTRO.. THATS ALL :)


GOODLUCK TO EVERYONE! GODBLESS.. :)
Tap to rate this tab
# A B C D E F G H I J K L M N O P Q R S T U V W X Y Z