Song name
# A B C D E F G H I J K L M N O P Q R S T U V W X Y Z

David Ryan Harris - For You tab

Help us improve GuitareTab! Take a short survey!
Part 1
The ooo at the beginning and the "thats why I travel..." part
---------------------------------------|
---------------------------------------|
---12-----11-----9-----7-----8---------|
---------------------------------------|
---------------------------------------|
---12-----10-----8-----7-----8---------|

Part 2 (Just a rough guide, listen for individual notes on your own time)
Verses/Chorus
   G    bm7     C     walkdown  am7
---3-------------------------------------|
---3-----3------1----------------1-------|
---0-----2------0-------0--------0-------|
---0-----4------2-------0--------2-------|
---2-----2------3-------2--------0-------|
---3-------------------------------------|

Part 3
Pre chorus:
   C     D      em?               B?       C
---------1--------------------------------------------|
---1-----2-------0-----------------7--------1---------|
---0-----1-------0-----------------8--------0---------|
---2-------------4-----------------7--------2---------|
---3-------------2--------------------------3---------|
-----------------0-----------------7------------------|


Never could figure out the bridge, maybe when I'm not working fulltime and taking a full 
load I'll have time. Until then,
Enjoy,
Matt V.
Related for For You tab