Song name
# A B C D E F G H I J K L M N O P Q R S T U V W X Y Z

David Ryan Harris - If I Had A Dime chords

Highlighted       Show chord diagrams
David Ryan Harris
If I had a dime
The Bittersweet
tabbed by : Maurice Mark R.

tuning DADGAD
3/4 time
Capo 2

a bunch missing,when u get used to the chords u can figure most out
the timing and strum pattern is not exact,
chords are accurate so use ur judgement of when to play it.
if you know the specific chord names/chords missing  let me know

Chords 
D   - 000200 or this is the chord he uses moe 054050
?   - x32030
?   - 013300
Bm  - 024400 or (11)(11)0900
A   - 002200 or 990800
F#m - 440200
G   - 550400

intro
     D      ?
D|---0------0----------------------|
A|---0------3----------------------|
G|---2------0----------------------|
D|---0------2----------------------| x2
A|---0------3----------------------|
D|---0-----------------------------|

verses
     D    ?    D    ?     Bm   ?
D|---0----0----0----0----0----0-------|
A|---0----3----0----3----0----0-------|
G|---2----0----2----0----4----3-------|
D|---0----2----0----2----4----3-------| 
A|---0----3----0----3----2----1-------|
D|---0---------0----------------------|

Chorus
     Bm    A    F#m  G
D|----0----0----0----0----|
A|----0----0----0----0----|
G|----4----2----2----4----| keep repeating. to go to chorus end on D
D|----4----2----0----0----| 
A|----2----0----4----5----|
D|--------------4----5----|
Tap to rate this tab
# A B C D E F G H I J K L M N O P Q R S T U V W X Y Z