Song name
# A B C D E F G H I J K L M N O P Q R S T U V W X Y Z

David Torn - Do You Ever Feel Cursed Friday Night Lights Soundtrack tab

Tabbed by: Mitchell
Email: kingmitch20@yahoo.com

                   David Torn Do You Ever Feel Cursed

e|---------------------------12+--------------------------------------------|
B|---5-10-6-5-3------10-----------------------------------------------------|
G|-7---------------7----9---------------------------------------------------|
D|--------------------------------------------------------------------------|
A|--------------------------------------------------------------------------|
E|--------------------------------------------------------------------------|

Around 1:00, there's some chords that go like this:

e|-3--3--3------------------------------------------------------------------|
B|-3--3--3------------------------------------------------------------------|
G|-0--0--2------------------------------------------------------------------|
D|-0--2--3------------------------------------------------------------------|
A|-2--3--0------------------------------------------------------------------|
E|-3--x--x------------------------------------------------------------------|

At 1:46, it continues part of the beginning part

e|--------------------------------------------------------------------------|
B|--6-5-3------6-5-3--------------------------------------------------------|
G|--------------------------------------------------------------------------|
D|--------------------------------------------------------------------------|
A|--------------------------------------------------------------------------|
E|--------------------------------------------------------------------------|

At 2:20 this part is repeated like in the beginning, except without the harmonic this time

e|--------------------------------------------------------------------------|
B|---10---------------------------------------------------------------------|
G|-7----9-------------------------------------------------------------------|
D|--------------------------------------------------------------------------|
A|--------------------------------------------------------------------------|
E|--------------------------------------------------------------------------|

Which segways into 2:25 where the earlier chords are brought back (also repeated again at 2:36)

e|-3--3--3------------------------------------------------------------------|
B|-3--3--3------------------------------------------------------------------|
G|-0--0--2------------------------------------------------------------------|
D|-0--2--3------------------------------------------------------------------|
A|-2--3--0------------------------------------------------------------------|
E|-3--x--x------------------------------------------------------------------|

The last part of the song at 2:56 is the exact same as the beginning

e|---------------------------12+--------------------------------------------|
B|---5-10-6-5-3------10-----------------------------------------------------|
G|-7---------------7----9---------------------------------------------------|
D|--------------------------------------------------------------------------|
A|--------------------------------------------------------------------------|
E|--------------------------------------------------------------------------|

Tap to rate this tab
# A B C D E F G H I J K L M N O P Q R S T U V W X Y Z