Song name
# A B C D E F G H I J K L M N O P Q R S T U V W X Y Z

David Wise - Donkey Kong Country 2 - Bonus Stage tab

Help us improve GuitareTab! Take a short survey!
Bonus Stage
Donkey Kong Country
Composed by Dave Wise
Tabbed by Richard Schaefer (richard@gametabs.net)
8/19/06

i just figured that ultimate-guitar
needed it.enjoy

e----------------0-0-1-0-------0-0-0------------------------0-----|
B------0-1-3-------------1-----------3-1--3-3-3-1-0-1-1-1-3---3-1-|
G--0-0------------------------------------------------------------|
D-----------------------------------------------------------------|
A-----------------------------------------------------------------|
E-----------------------------------------------------------------|

e-----0--3-----4--5--7-----8-10-8-10h11-10-8-5---|
B--4---------------------------------------------|
G------------------------------------------------|
D------------------------------------------------|
A------------------------------------------------|
E------------------------------------------------|

e--11-12-15-12-11-10-8-----6-7-10-7-6-5-3-----5-8-10-11-10-8-|
B------------------------------------------------------------|
G------------------------------------------------------------|
D------------------------------------------------------------|
A------------------------------------------------------------|
E------------------------------------------------------------|
Related for Donkey Kong Country 2 - Bonus Stage tab