Song name
# A B C D E F G H I J K L M N O P Q R S T U V W X Y Z

Davis Miles - All Blues tab

Miles Davis
ALL BLUES

It's a really cool tune. A classic.

This is in 3/4 time. This is just the background, you can try
having another guitar playing this and you soloing off of it.

e -------------------------------------------------------------|
b -------------------------------------------------------------|
g ------------0----0--------0----------------------------------|
d ----0-------2----3--------2----------------------------------|
a ----2----3-------5-----3-------------------------------------|
e ----3--------------------------------------------------------|

Repeat this four times. Remember 3/4 time.

e -------------------------------------------------------------|
b -------------------------------------------------------------|
g ------------0----0--------0----------------------------------|
d ----0-------2----3--------2----------------------------------|
a ----1----3-------5-----3-------------------------------------|
e ----3--------------------------------------------------------|

Repeat this twice. Then go back to the first pattern. (1x)

e -------------------------------------------------------------|
b ----6----(D7#9)----------------------------------------------|
g ----5----------(Move one half step up)-----------------------|
d ----4--------------------------------------------------------|
a ----5--------------------------------------------------------|
e -------------------------------------------------------------|

Repeat first pattern once.

^^^^^^^^^^^^^^^^^^^^^^^^^^^^^^^^^^^^^^^^^^^^^^^^^^^^^^^^^^^^^^^^^^^^
"Because the world owes us nothing, and we owe eachother the world."

                                   -Ani Difranco
Tap to rate this tab
 
# A B C D E F G H I J K L M N O P Q R S T U V W X Y Z