Song name
# A B C D E F G H I J K L M N O P Q R S T U V W X Y Z

Davy Sicard - Un Peu De Moi tab

Davy Sicard "Un peu de moi"

first tab for me so spaces are not correct/rythm, listen and find yours ;)
feel free to correct
lsioctl

Intro and main repeat as needed

e|------------0------|------------0------|------------0------|------------0------||
B|-----1---0----0----|-----1---0----0----|-----1---0----0----|-----1---0----0----||
G|-------2---2----2--|-------2---2----2--|-------2---2----2--|-------2---2----2--||
D|-------------------|--3----------------|--4----------------|--3----------------||
A|--0----------------|-------------------|-------------------|-------------------||
E|-------------------|-------------------|-------------------|-------------------||

Chorus

e|----------------------|-----------1---0---|------------0------|-------------------|
B|-----1----1------1---1|-----3---3-------3-|-----1---0----0----|---------0---------|
G|---2----2------2---2--|---2---2-----2-----|-------2---2----2--|-------2-----------|
D|-0-----------0--------|-2-----------------|-------------------|-----3-------------|
A|----------------------|-------------------|--0----------------|--0----------------|
E|----------------------|-------------------|-------------------|-------------------|

e|----------------------|------------------|
B|-----1----1------1---1|-----3---3------3-|
G|---2----2------2---2--|---2---2------2---|
D|-0-----------0--------|-2---------2------|
A|----------------------|------------------|
E|----------------------|------------------|

and back to main

Interlude mainly F#5 and G5 repeat as needed

e|-------------------------||
B|--------2---0------------||
G|-------------------------||
D|------4-------------5----||
A|----4-------------5------||
E|-2--------2-----3--------||
Tap to rate this tab
 
# A B C D E F G H I J K L M N O P Q R S T U V W X Y Z