Guitaretab - guitar tabs
Song name
# A B C D E F G H I J K L M N O P Q R S T U V W X Y Z

Davy Sicard - Maloya Kabos tab

Artiste : Davy Sicard

Titre : Maloya Kabosť


e|--------------|-----------|-----------|
B|--------------|-----------|-----------|
G|--------------|-----------|-----------|
D|-----5-----5--|--5-----5--|--6-----5--|
A|--------6-----|-----6-----|-----5-----|
E|--8-----------|-----------|-----------|


e|--------------|-----------|--------------|
B|--------------|-----------|--------------|
G|--------------|-----------|--------------|
D|-----5-----5--|--5-----5--|-----5-----5--|
A|--------6-----|-----6-----|--------7-----|
E|--8-----------|-----------|--8-----------|



e|--------------|-----------|--------------|-----------|
B|--------------|-----------|--------------|-----------|
G|-----5-----5--|--5-----5--|--------------|-----------|
D|--------6-----|-----6-----|-----5-----5--|--5-----5--|
A|--8-----------|-----------|--8-----6-----|-----6-----|
E|--------------|-----------|--------------|-----------|

[ Tab from: http://www.guitaretab.com/d/davy-sicard/99236.html ]
e|--------------|-----------|-----------|
B|--------------|-----------|--------3--|
G|-----5-----5--|--5-----5--|-----4-----|
D|--------6-----|-----6-----|--5--------|
A|--8-----------|-----------|-----------|
E|--------------|-----------|-----------|


Refrain :

          Cm                  Bb                  Fm                    G
   ----------------    ================    ================      ----------------
   |  |  |  |  |  |    |  |  |  |  |  |    |  |  |  |  |  |      |  |  |  |  |  |
3  ////////////////    ////////////////    ////////////////    3 ////////////////
   |  |  |  |  |  |    |  |  |  |  |  |    |  |  |  |  |  |      |  |  |  |  |  |
   ----------------    ----------------    ----------------      ----------------
   |  |  |  |  |  |    |  |  |  |  |  |    |  |  |  |  |  |      |  |  |  |  |  |
   |  |  |  |  2  |    |  |  |  |  |  |    |  |  |  |  |  |      |  |  |  2  |  |
   |  |  |  |  |  |    |  |  |  |  |  |    |  |  |  |  |  |      |  |  |  |  |  |
   ----------------    ----------------    ----------------      ----------------
   |  |  |  |  |  |    |  |  |  |  |  |    |  |  |  |  |  |      |  |  |  |  |  |
   |  |  3  4  |  |    |  |  2  3  4  |    |  3  4  |  |  |      |  3  4  |  |  |
   |  |  |  |  |  |    |  |  |  |  |  |    |  |  |  |  |  |      |  |  |  |  |  |
   ----------------    ----------------    ----------------      ----------------
Related for Maloya Kabos tab