Dawes - When My Time Comes tab

Dawes - When My Time Comes

This is a great song. If you have any suggestions let me know. 

Tabbed by Mat! (putty)



Intro

e|---------------|---------------|---------------|---------------|
B|------5-5------|------5-5------|------5-5------|------5-5------|
G|----4-----4----|----4-----4----|----4-----4----|----6-----6----|
D|--6------------|--6------------|--6------------|--7------------|
A|---------------|---------------|---------------|---------------|
E|---------------|---------------|---------------|---------------|

e|---------------|---------------|---------------|---------------|
B|------5-5------|------5-5------|------5-5------|------5-5------|
G|----4-----4----|----4-----4----|----4-----4----|----6-----6----|
D|--6------------|--6------------|--6------------|--7------------|
A|---------------|---------------|---------------|---------------|
E|---------------|---------------|---------------|---------------|

e|---------------|---------------|---------------|---------------|
B|------5-5------|------5-5------|------5-5------|------5-5------|
G|----4-----4----|----4-----4----|----4-----4----|----6-----6----|
D|--6------------|--6------------|--6------------|--7------------|
A|---------------|---------------|---------------|---------------|
E|---------------|---------------|---------------|---------------|

e|---------------|---------------|---------------|---------------|
B|------9-9------|------9-9------|------9-9------|-------10-10---|
G|----9-----9----|----9-----9----|----9-----9----|-----9-------9-|
D|--9------------|--9------------|--9------------|--11-----------|
A|---------------|---------------|---------------|---------------|
E|---------------|---------------|---------------|---------------|

e|---------------|---------------|---------------|---------------|
B|-------9-9-----|-------9-9-----|-------9-9-----|------9-9------|
G|-----9----9----|-----9-----9---|-----9-----9---|----9-----9----|
D|--11-----------|--11-----------|--11-----------|--11-----------|
A|---------------|---------------|---------------|---------------|
E|---------------|---------------|---------------|---------------|

e|---------------|---------------|---------------|---------------|
B|------5-5------|------5-5------|------5-5------|------5-5------|
G|----6-----6----|----6-----6----|----6-----6----|----6-----6----|
D|--7------------|--7------------|--7------------|--7------------|
A|---------------|---------------|---------------|---------------|
E|---------------|---------------|---------------|---------------|


Verse

e|---------------|---------------|---------------|---------------|
B|------5-5------|------5-5------|------5-5------|------5-5------|
G|----4-----4----|----4-----4----|----4-----4----|----6-----6----| X 8
D|--6------------|--6------------|--6------------|--7------------|
A|---------------|---------------|---------------|---------------|
E|---------------|---------------|---------------|---------------|


Bridge

The Bridge is just Bm  A

Chorus (You can strum these simple chords or pick them like they play them)

e|---------------|---------------|---------------|---------------|
B|------5-5------|------5-5------|------5-5------|------5-5------|
G|----4-----4----|----4-----4----|----4-----4----|----6-----6----|
D|--6------------|--6------------|--6------------|--7------------|
A|---------------|---------------|---------------|---------------|
E|---------------|---------------|---------------|---------------|

e|---------------|---------------|---------------|---------------|
B|------9-9------|------9-9------|------9-9------|-------10-10---|
G|----9-----9----|----9-----9----|----9-----9----|-----9-------9-|
D|--9------------|--9------------|--9------------|--11-----------|
A|---------------|---------------|---------------|---------------|
E|---------------|---------------|---------------|---------------|

e|---------------|---------------|---------------|---------------|
B|-------9-9-----|-------9-9-----|-------9-9-----|------9-9------|
G|-----9----9----|-----9-----9---|-----9-----9---|----9-----9----|
D|--11-----------|--11-----------|--11-----------|--11-----------|
A|---------------|---------------|---------------|---------------|
E|---------------|---------------|---------------|---------------|

e|---------------|---------------|---------------|---------------|
B|------5-5------|------5-5------|------5-5------|------5-5------|
G|----6-----6----|----6-----6----|----6-----6----|----6-----6----|
D|--7------------|--7------------|--7------------|--7------------|
A|---------------|---------------|---------------|---------------|
E|---------------|---------------|---------------|---------------|
Tap to rate this tab
 
# A B C D E F G H I J K L M N O P Q R S T U V W X Y Z