Song name
# A B C D E F G H I J K L M N O P Q R S T U V W X Y Z

Dawes - When My Time Comes tab

-------------------------------------------------------------------------------
                             When My Time Comes - Dawes
-------------------------------------------------------------------------------
Tabbed by: Abe M.
E-mail: firepick11@gmail.com

Tuning: EADGBe

e|----------0----------0----------0----------0-----------0---------0---------|
B|--------5---5------5---5------5---5------5---5-------9---9-----9--9--------|
G|------4------4---4------4---4------4---6------6-----9-----9--9-----9-------|
D|----6----------6----------6----------7----------7/9---------9--------------|
A|---------------------------------------------------------------------------|
E|---------------------------------------------------------------------------|

e|---------0------------0-------------0------------0----------0--------------|
B|-------9---9-------10--10--------9----9--------9--9-------9--9-------------|
G|-----9------9----9--------9----9--------9----9------9---9------9-----------|
D|---9----------11------------11------------11---------11--------------------|
A|---------------------------------------------------------------------------|
E|---------------------------------------------------------------------------|

e|---------0----------0----------0----------0-----------0--------------------|
B|-------9---9------5---5------5---5------5---5-------5--5-------------------|
G|-----9------9---6------6---6------6---6-------6---6-----6------------------|
D|--11----------7----------7----------7-----------7--------------------------|
A|---------------------------------------------------------------------------|
E|---------------------------------------------------------------------------|

           E                                  A
There were moments of dreams I was offered to save

        E                                  A
I lived less like a workhorse, more like a slave

               C#m               
I thought that one quick moment that was noble or brave

          A
would be worth the most of my life

            
        F#m                                    B7
Now the only piece of advice that continues to help

                 C#m                                       A
Is anyone that's making anything new only breaks something else



E    A       E       A     C#m   B     A
When my time comes,  ooohh-oohhh-ooohh-ooohhhh


************************************

| /   slide up
| \   slide down
| h   hammer-on
| p   pull-off
| ~   vibrato
| +   harmonic
| x   Mute note
| b   Bend
| pb  Pre-bend
| br  Bend release
| pbr Pre-bend release
| brb Bend release bend

************************************
Tap to rate this tab
# A B C D E F G H I J K L M N O P Q R S T U V W X Y Z