Song name
# A B C D E F G H I J K L M N O P Q R S T U V W X Y Z

Dawes - How Far Weve Come tab

Dawes - How far weve come

seems to be some kind of open E tuning, all strings are picked (exceptions indicated) I 
wrote just the chords changes down not the picking pattern, this is the closest I could 
get so far


Intro/verse

e|--4--2--0---0------4-5-4---5---4---2---0-h2s---4-------------------------|
B|-----------h2b0----------------------------------------------------------|
G|--4--4--4---4------4-4-4---6---4---2---0-h2s---4-------------------------|
E|-------------------------------------------------------------------------|
B|-------------------------------------------------------------------------|
E|-------------------------------------------------------------------------|

e|--4--2--0----------4-5-4---5---4---2---0--0---------2--------------------|
B|-----------h2b0----------------------------------------------------------|
G|--4----------------4-------6---4---2---0--2----h2------------------------|
E|-------------------------------------------------------------------------|
B|------------------------------------------x------------------------------|
E|-------------------------------------------------------------------------|


Chorus

e|--4--5--4---4---------------5--4----2--0--0------------------------------|
B|--5--4--5---5---7r-5r4h5----4--5-----------------------------------------|
G|--4--6--4---4---------------6--4----2--0--2------------------------------|
E|-------------------------------------------------------------------------|
B|------------------------------------------x------------------------------|
E|-------------------------------------------------------------------------|
Tap to rate this tab
# A B C D E F G H I J K L M N O P Q R S T U V W X Y Z