Song name
# A B C D E F G H I J K L M N O P Q R S T U V W X Y Z

Dawes - Coming Back To A Man tab

-----------------------------------------------------------------
Coming Back to a Man (Solo) - Dawes
-----------------------------------------------------------------
Tabbed by: Keith Rodgers (UG User: DirkLance)
Email: karodgers2@bsu.edu
Tuning: Standard (EADGBe)

This tab is for the SOLO ONLY for the song “Coming Back to a Man” by Dawes.  It’s the 
4th track on their second album called Nothing is Wrong.

Most of the chord tabs on UG can guide you to how to play this song in its entirety 
rhythm-wise, but I figured I’d tab the main solo since I figured it out by ear.  Obviously 
you can position it differently if it’s more comfortable for you, but this is how 
I play it.  Have fun!

(2:38-2:43)
E|------------4h5/7-5—--7/9---7-9-9/10---9-9-12p9----------------|
B|--------5h7----------------------------------------------------|
G|-----/7--------------------------------------------------------|
D|---------------------------------------------------------------|
A|---------------------------------------------------------------|
E|---------------------------------------------------------------|

(2:44-2:50)
E|--7/9-12—12b14--12-10-9h10p9-----------------------------------|
B|-------------------------------------10------------------------|
G|-----------------------------9-10-11----11-10-9----------------|
D|---------------------------------------------------------------|
A|---------------------------------------------------------------|
E|---------------------------------------------------------------|

(2:50-2:55)
E|--5---7-5—-5/9--9--9---7--5--------------|
B|--7---8-7—-7/10-10-10--9--7--------------|
G|-----------------------------------------|
D|-----------------------------------------|
A|-----------------------------------------|
E|-----------------------------------------|

(2:55-3:00)
E|-------------------------|
B|--2----------------------|
G|--2-----------4-----6v---|
D|--2----------------------|
A|--0-----4h5h6---6/7------|
E|-------------------------|

Tablature Notation:

h - hammer on
p - pull off
b - bend string up
r - release bend
/ - slide up
\ - slide down
v - vibrato (or ~)
Tap to rate this tab
# A B C D E F G H I J K L M N O P Q R S T U V W X Y Z