Guitaretab - guitar tabs
Song name
# A B C D E F G H I J K L M N O P Q R S T U V W X Y Z

Dawn Of Azazel - The Road To Babalon tab

Band: Dawn of Azazel
Album: Sedition
Song: The Road to Babalon

Copyright (c) Ibex Moon Records, 2005
Version 1.0, 5/4/2006

 
Code: 
Suffixes for bend: 
fb - full bend       hb - half bend 
qb - quarter bend    t - tap bend 
^ - Hold bend        r - release bend 
~ - vibrato bend 

Suffixes for harmonic: 
ph - pinched harmonic      nh  natural harmonic 
ah  artificial harmonic   hh  harp harmonic 

Suffixes for mute: 
.  palm mute            x  staccato mute 
, - light palm mute      ; - heavy palm mute 

Other: 
/ - slide up to            \ - slide down to        
h - hammer on              p - pull off 
 - sustained note         * - see comment 
" - tremolo note           <> - Trill 
L  left channel only      R  right channel only 
= - 12 string guitar part

Tuning A# D# G# C# F A#

Riff 1a (0:01)
                  [x4]                                          [x2]
|--------------------|---------------------------------------------|
|--------------------|---------------------------------------------| 
|--------------------|-----------------------------------0---------| 
|-6hb-----5----------|-6hb-------5-----------6hb-------6-----------| 
|------------4-4-4-4-|---------------4-4-4-4---------------4-4-4-4-| 
|------3-----2-2-2-2-|-------3-------2-2-2-2-------3-------2-2-2-2-|
             . . . .                 . . . .               . . . .

Riff 1b (0:17) play 4 times 
|---------------------------------------------|
|---------------------------------------------| 
|-----------------------------------0---------| 
|-6hb-------5-----------6hb-------6-----------| 
|---------------4-4-4-4---------------4-4-4-4-| 
|-------3-------2-2-2-2-------3-------2-2-2-2-|
                . . . .               . . . .
[ Tab from: http://www.guitaretab.com/d/dawn-of-azazel/101522.html ]
Riff 2a (0:25) play 4 times 
|----------------------------------------------|
|----------------------------------------------| 
|----------------------------------------------| 
|------------------------888888-------4ah--6ah-| 
|-7777777777777777-8-7-8--------6-7-6----------| 
|-5555555555555555-6-5-6--------4-5-4----------|
                   . . .        . . .

Riff 2b (0:37) play twice 
|-----------------------------------------|
|-----------------------------------------| 
|-----------------------------------------| 
|--------------------------------4ah--6ah-| 
|-88888888888888887/8\7-7-----------------| 
|-66666666666666665/6\5-5--5-5-5----------|
                           . . .

Riff 2a x 1 (0:43)

Riff 3 (0:54) play 4 times 
|-------------------------------------------------------------6666-
|------------------------------------------------------------------ 
|------------------------------------------------------------------
|-5555------------------------------------------------------------- 
|------5-6-4-5-4--6666-6-7-6-7777-7-8-7-8888-8-9-7777-7-8-7-8------ 
|------3-4-2-3-2-------4-5-4------5-6-5------6-7------5-6-5-6------
       . . . . .       . . .      . . .      . .      . . . .

--------------|
-5555---------| 
--------------| 
--------------| 
------7-8-6-5-| 
------5-6-4-3-|
      . . . .

Riff 2a x 1 (1:13)
Riff 2b x 1 (1:25)
Riff 2a x 1 (1:31)
Riff 3 x 1 (1:43)
Riff 1a x 1 (2:01)

Riff 4 (2:10) play 4 times 
|------------------------------------|
|------------------------------------| 
|------------------------------------| 
|-6hb-----5-----------5555-----------| 
|-------------4-4-4-4------5--4-6-4--| 
|------3------2-2-2-2------3--2-4-2--|
              . . . .      .  . . .

Riff 3 x 1 (2:22)

END (2:40)
Related for The Road To Babalon tab