Guitaretab - guitar tabs
Song name
# A B C D E F G H I J K L M N O P Q R S T U V W X Y Z

Dawn Of Azazel - Violence And Encleanliness tab

Band: Dawn of Azazel
Album: Sedition
Song: Violence and Uncleanliness

Copyright (c) Ibex Moon Records, 2005
Version 1.1, 9/5/2007

Transcribed By: Andrew Collyer
Contact: immortalshadow666@gmail.com
Some corrections by: Vince Boivin - hated_gg_allin@hotmail.com


Code: 
Suffixes for bend: 
fb - full bend       hb - half bend 
qb - quarter bend    t - tap bend 
^ - Hold bend        r - release bend 
~ - vibrato bend 

Suffixes for harmonic: 
ph - pinched harmonic      nh  natural harmonic 
ah  artificial harmonic   hh  harp harmonic 

Suffixes for mute: 
.  palm mute            x  staccato mute 
, - light palm mute      ; - heavy palm mute 

Other: 
/ - slide up to            \ - slide down to        
h - hammer on              p - pull off 
 - sustained note         * - see comment 
" - tremolo note           <> - Trill 
L  left channel only      R  right channel only 
= - 12 string guitar part

Tuning A# D# G# C# F A#

Intro (0:00) play 4 times
|-----------------------------|
|-----4444-----3333-----------| 
|-----------------------------| 
|-----------------------------| 
|-5-5------5-5------4--4-6-5--| 
|-3-3------3-3------2--2-4-3--|
  . .      . .          
[ Tab from: http://www.guitaretab.com/d/dawn-of-azazel/101523.html ]
Riff 1 (0:09)
                           [x4]                            [x4]
|-55556666---------------------|-55556666---------------------|
|---------7777-----------------|---------5555-----------------|
|------------------------------|------------------------------|
|------------------------------|------------------------------| 
|---------------4--4-4-6-5--5--|---------------4--4-4-6-5--5--|  
|---------------2--2-2-4-3--3--|---------------2--2-2-4-3--3--|
                   . .                            . .
Riff 2a (0:29)
|---------------------------------------|
|---------------------------------------| 
|---------------------------------------| 
|--------------------7-7-7-7------------| 
|-6h7p6-----66666666-5-5-5-5---5-5-5-5--| 
|-------5~---------------------3-3-3-3--|
                     . . .     . . .

Riff 2b (0:32)
|--------------------------------------------------|
|--------------------------------------------------| 
|-----------------------101010101010999999---------| 
|-----------------888888------------------7777777--| 
|-6h7p6-----666666---------------------------------| 
|-------5~-----------------------------------------|

Riff 2a x 1 (0:35)
Riff 2b x 1 (0:38)
Riff 2a x 1 (0:41)
Riff 2b x 1 (0:44)
Riff 2a x 1 (0:47)
Riff 2b x 1 (0:50)

Riff 3a (0:53)
|-------------------------------------------------------------------|
|-------------------------------------------------------------------| 
|-------------------------------------------------------------------| 
|------------------------------------------------------------------7| 
|-33334444-----------------33334444-----------------5--4--3--5--4--5| 
|----------5-0-4-3-5-0-4-3----------5-0-4-3-5-0-4-3-3--2--0--3--2---|
           . . . . . . . .          . . . . . . . . .  .  .  .  .  . 

Riff 3b (0:57)
|-------------------------------------------------------------6--7--|
|-------------------------------------------------------------5--6--| 
|--------------------------55556666---------------------------3--4--| 
|-------------------------------------------6--\5-------------------| 
|-33334444----------------------------------4--\3-----1-----4-------| 
|----------5-0-4-3-5-0-4-3----------5-0-4-3-------3-2---3-2---------|
           . . . . . . . .          . . . .       . . . . . .

Riff 3a x 1 (1:01)
Riff 3b x 1 (1:05)
Riff 2a x 1 (1:08)
Riff 2b x 1 (1:12)
Riff 2a x 1 (1:14)
Riff 2b x 1 (1:17)
Riff 2a x 1 (1:20)
Riff 2b x 1 (1:23)
Riff 2a x 1 (1:26)
Riff 2b x 1 (1:29)
Riff 3a x 1 (1:32)
Riff 3b x 1 (1:36)
Riff 3a x 1 (1:40)
Riff 3b x 1 (1:44)
Riff 1 x 1 (1:48)

END (2:10)
Related for Violence And Encleanliness tab