Song name
# A B C D E F G H I J K L M N O P Q R S T U V W X Y Z

Dawn Of Tears - Blood On Verona tab

Song: Blood on Verona
Artist: Dawn of Tears
Album: Descent

This tab is old and inaccurate, so don't even bother trying to learn what I've done so
far.  I am working on several tabs for this band at the moment, so please be patient,
and I'll come back and finish this.  Thanks!

No Guitar (0:00-0:33)
Intro (0:33-1:40)
E----------------------------------------------------------------------|
B----------------------------------------------------------------------|
G----------------------------------------------------------------------|
D----------------------------------------------------------------------|
A-7------------------------------------/12-12---10-10---/15-15---14-14-|
E----------------------------------------------------------------------|
PM

E----------------------------------------------------------------------|
B----------------------------------------------------------------------|
G----------------------------------------------------------------------|
D----------------------------------------------------------------------|
A-7------------------------------------9-10-5--------------------------|
E----------------------------------------------------------------------|
PM

E--------------------------------------------------------------------------|
B--------------------------------------------------------------------------|
G-9------------------------------------/14-14-14--12-12---/17-17-17--16-16-|
D--------------------------------------------------------------------------|
A--------------------------------------------------------------------------|
E--------------------------------------------------------------------------|
PM

E----------------------------------------------------------------------|
B----------------------------------------------------------------------|
G-9------------------------------------11-12-7-------------------------|
D----------------------------------------------------------------------|
A----------------------------------------------------------------------|
E----------------------------------------------------------------------|
PM

E----------------------------------------------------------------------|
B----------------------------------------------------------------------|
G----------------------------------------------------------------------|
D----------------------------------------------------------------------|
A------10----9----12----9-----9h10----------14----12----10----9----5h9-|
E-0000------------------------------0000-------------------------------|
PM****                              ****

E----------------------------------------------------------------------|
B----------------------------------------------------------------------|
G----------------------------------------------------------------------|
D----------------------------------------------------------------------|
A------10----9----12----9-----9h10----------14----12----10----9----5h9-|
E-0000------------------------------0000-------------------------------|
PM****                              ****


E----------------------------------------------|
B----------------------------------------------|
G----------------------------------------------|
D----------------------------------------------|
A------10-------9-------12-------9--------9h10-|
E-0000-----0000----0000-----0000-----0000------|
PM****     ****    ****     ****     ****

E---------------------------------------------|
B---------------------------------------------|
G---------------------------------------------|
D---------------------------------------------|
A------14-------12-------10-------9-------5h9-|
E-0000-----0000-----0000-----0000----0000-----|
PM****     ****     ****     ****    ****

E----------------------------------------------|
B----------------------------------------------|
G----------------------------------------------|
D----------------------------------------------|
A------10-------9-------12-------9--------9h10-|
E-0000-----0000----0000-----0000-----0000------|
PM****     ****    ****     ****     ****

E---------------------------------|
B---------------------------------|
G---------------------------------|
D---------------------------------|
A-5-5-5-5-5-5-5-5-7-7-7-7-7-7-7-7-|
E-3-3-3-3-3-3-3-3-5-5-5-5-5-5-5-5-|
PM* * * * * * * * * * * * * * * *
Tap to rate this tab
 
# A B C D E F G H I J K L M N O P Q R S T U V W X Y Z