Song name
# A B C D E F G H I J K L M N O P Q R S T U V W X Y Z

Dawn - Change Is Breaking Us Apart tab

CHANGE IS BREAKING US APART by The Dawn

INTRO: D-F#m-Bm-G

VERSE: D-F#m-Bm-G

MOve on
is all about moving on
until we are too far to see where we came from

Yesterday
is too much of a burden
so we just hide numbly on our skins

Keep the gloss
Keep the shine
Let the blind lead the blind

What lies ahead is so very vague
but still we choose to grow beneath the light

REFRAIN: C-E-F-G

CHoRUS: D-F#m-Bm-G
Oh, change is breaking us apart
Oh, change is breaking us apart
Or maybe we just need to start again

ADLIB 1:

e|----5---5----------------------------|
B|-/7---7---8-7-5-------5--------------|
G|----------------7---6-7---7-6-6/2-4--|
D|-------------------------------------|
A|-------------------------------------|
E|-------------------------------------|

e|-------------------------------5-------5---------------|
B|---------------------------5/7---8-7-8---8-7-7/5-5-5/3-|
G|-2-4/6-6/7-7/9-9-9-7--6-7------------------------------|
D|-------------------------------------------------------|
A|-------------------------------------------------------|
E|-------------------------------------------------------|

ADLIB 2:

e|---------------------------10/12-12/10-10~-------14b-10-|
B|--------10/12-12/10-10~-10-----------------10/12--------|
G|--------------------------------------------------------|
D|-12~-12-------------------------------------------------|
A|--------------------------------------------------------|
E|--------------------------------------------------------|

NITRAM
06-01-08
05:16 AM
Tap to rate this tab
# A B C D E F G H I J K L M N O P Q R S T U V W X Y Z