Song name
# A B C D E F G H I J K L M N O P Q R S T U V W X Y Z

Dawn - Laging Narito tab

Help us improve GuitareTab! Take a short survey!
----------------------------------------------------------------------------
		    Laging Narito - The Dawn
----------------------------------------------------------------------------
Tabbed by: Gary Elechicon
Email:rephlica@yahoo.com

Tuning:standard

SOLO:

e|----------------------------------------|
B|----------------------------------------|
G|-------4--6---7--7--7--7--6-----9~~-----|
D|---/7------------------------7----------|
A|----------------------------------------|
E|----------------------------------------|

e|----------------------------------------------------------------|
B|---10--10--10--10--10--10/12------------------------------------|
G|---------------------------------9--9/11--9~~~~-----------------|
D|----------------------------------------------------------------|
A|----------------------------------------------------------------|
E|----------------------------------------------------------------|



e|---/14--14--14--14--14--12--12--12--12/14-----------------------|
B|-------------------------------------------12--12/14--12~~~~----|
G|----------------------------------------------------------------|
D|----------------------------------------------------------------|
A|----------------------------------------------------------------|
E|----------------------------------------------------------------|

e|----/17--17--17-----17/19--19--19-19----------------------------|
B|---------------------------------------19p17--17/19-------------|
G|----------------------------------------------------------------|
D|----------------------------------------------------------------|
A|----------------------------------------------------------------|
E|----------------------------------------------------------------|

e|---------------------------------------------/17---17(bend)(19)--17~~~~~-|
B|---/15--15--13--12---12h13--12--10-----10--------------------------------|
G|------------------------------------12-----------------------------------|
D|-------------------------------------------------------------------------|
A|-------------------------------------------------------------------------|
E|-------------------------------------------------------------------------|



| /  slide up
| \  slide down
| h  hammer-on
| p  pull-off
| ~  vibrato
| +  harmonic
| x  Mute note
===========================================================================
Related for Laging Narito tab