Song name
# A B C D E F G H I J K L M N O P Q R S T U V W X Y Z

Dawn - Tulad Ng Dati tab

--------------------------------------------------------------------------
		           The Dawn - Tulad ng Dati
--------------------------------------------------------------------------
Tabbed by:Gary Elechicon
Email:rephlica@yahoo.com

Tuning:standard


Intro:

e|----------------2----------|
B|--4--5----4-5---5-5--------|
G|--4--4----4-4-----4--------|
D|---------------------------|
A|---------------------------|
E|---------------------------|X2  


e|---------------------------|
B|--4--2----4--2-------------|
G|--4--4----4--4-------------|
D|---------------------------|
A|---------------------------|
E|---------------------------|

Intro and Verse are much the same. You just have to mute the 3rd string while playing.

e|-------------------2-----------------------|
B|--4-5------4-5-----5---5---------4-2--4-2--|
G|--x-x-x-x--x-x--x-x-x--x-x--x-x--x-x--x-x--|
D|-------------------------------------------|
A|-------------------------------------------|
E|-------------------------------------------|

Pre chorus and Chorus Chords: E B D A


Small Solo before the last chorus. With the Intro chords for the Rhythm.

e|--9--7----------------9-----7----------------9----7--------------9----|
B|--------9--7---7--9-----------9--7----7---9----------9--7---7--9------|
G|-------------9----------------------9---------------------9-----------|
D|----------------------------------------------------------------------|
A|----------------------------------------------------------------------|
E|----------------------------------------------------------------------|

e|--7-----------------9--7~--------------------9~~-7~~------------------|
B|----9--7-----7--9-----------9~~-7~~------7~~---------9~~--7~~---------|
G|----------9-------------------------9~~-------------------------------|
D|----------------------------------------------------------------------|
A|----------------------------------------------------------------------|
E|----------------------------------------------------------------------|


Kung may bagyo..     o kung tag araw..   sa iyong damdamin..         scrape on open 6th

e|--7--------------------7------------------------------------------------|
B|------5-------------------4---------------------------------------------|
G|---------4~~------------------4--------7-7-7-7-7-7-7-7-7-7--------------|
D|---------------------------------------7-7-7-7-7-7-7-7-7-7-7-7-7--------|
A|---------------------------------------5-5-5-5-5-5-5-5-5-5-7-7-7--------|
E|-----------------------------------------------------------5-5-5----0/--|


A portion of the last solo

    Triple
e|--------------------------------16~~---14-------------------|
B|-------------------------------------------17---------------|
G|-13-13-13----14-14-14-----14h16----------------13p12~~------|
D|------------------------------------------------------------|
A|------------------------------------------------------------|
E|------------------------------------------------------------|

e|---17\19~~---16-17----16------------------------------------|
B|-------------------19-----17--19----------------------------|
G|----------------------------------19~~~~--------------------|
D|------------------------------------------------------------|
A|------------------------------------------------------------|
E|------------------------------------------------------------|

e|--19\21-19~---------------------------------------------|
B|---------------17--17\19--------------------------------|
G|--------------------------18--16~~----------------------|
D|--------------------------------------------------------|
A|--------------------------------------------------------|
E|--------------------------------------------------------|

e|----------------------------16-h17p16---------19--------|
B|---------------17--------17-----------17----------------|
G|--\16-------16-------~16-----------------16-------------|
D|---------18---------------------------------------------|
A|--------------------------------------------------------|
E|--------------------------------------------------------|





| /  slide up
| \  slide down
| h  hammer-on
| p  pull-off
| ~  vibrato
| +  harmonic
| x  Mute note
============================================================================
Tap to rate this tab
 
# A B C D E F G H I J K L M N O P Q R S T U V W X Y Z