Song name
# A B C D E F G H I J K L M N O P Q R S T U V W X Y Z

Dawn - Harapin Ang Liwanag tab

HARAPIN ANG LIWANAG by The Dawn

INTRO:

e|--------------------------------x-x-x-x-|
B|--------------------------------1-1-1-1-|
G|-5-4-------5-4-------5-4--------2-2-2-2-| 2x
D|-5-4-7-7---5-4-7-7---5-4-7-7----3-3-3-3-|
A|-3-2-7-7-0-3-2-7-7-0-3-2-7-7-0--3-3-3-3-|
E|-----5-5-0-----5-5-0-----5-5-0--x-x-x-x-|

e|-3h5p3-3h5p3-3h5p3--x-x-x-x-|
B|--------------------1-1-1-1-|
G|--------------------2-2-2-2-| 2x
D|--------------------3-3-3-3-|
A|--------------------3-3-3-3-|
E|--------------------x-x-x-x-|

e|------------------5--|
B|-------0--------3-5--|
G|---------------------| 2x
D|-----7--------5------|
A|---7--------5--------|
E|-5--------3----------|

VERSE:
   Am      C                 Am-C-D-G
e|-----------------5----    -------------------------------------|
B|-------0-------3-5----    -------------------------------------|
G|---------------------- 2x ---------7-7--------------7-7--------| 2x
D|-----7-------5--------    -----9-9-----9-9------9-9-----9-9----|
A|---7-------5----------    -7-7--------------7-7-------------10-|
E|-5-------3------------    -------------------------------------|

CHORUS:
   Am              C       D
e|---------------------------------|
B|---------------------------------|
G|-5-5-5-5-5-5-5-5-----------------| 4x
D|-7-7-7-7-7-7-7-7-5-5-5-5-7-7-7-7-|
A|-----------------3-3-3-3-5-5-5-5-|
E|---------------------------------|


NITRAM
01-06-08
05:30 AM
Tap to rate this tab
 
# A B C D E F G H I J K L M N O P Q R S T U V W X Y Z