Song name
# A B C D E F G H I J K L M N O P Q R S T U V W X Y Z

Dawsons Creek Soundtrack - Stay You chords

Highlighted       Show chord diagrams
----------------------------------------------------------------------------
                             Wood - Stay You
----------------------------------------------------------------------------
Tabbed by: songerph

Heard this cool song from Dawson's Creek

Tuning: EADGBe (Standard)

Intro: G D Em C 
(You can play with the two high strings to your heart's content. XD)


Verse 1:
  G
I love the way you speak
      D
And I love the way you swear
  Em                                     C
I love the way you walk around with your head held in the air
  G
I love the way your words move
      D
And I love the way you drive
  Em                                   C
I love the way you're scared of people scared to be alive


Chorus:
G     D      Em    C
Stay...  hey/yeah... 
     G    D            Em                C 
Stay you... that's the toughest thing to do


Verse 2:
  G                             D 
I love the way you dress upon a Saturday night
  Em                                    C
I love the way you never speak until it feels just right
  G                                     D
I love the way you're spending all your money on yourself
  Em                                    C
I love the way you answer the phone and pretend you're somebody else


Chorus: (2x)
G     D      Em    C
Stay...  hey/yeah... 
     G    D            Em                C 
Stay you... that's the toughest thing to do


Interlude: G D Em C (I just put this together)
e|-------------------------------------------|
B|-------------------------------------------|
G|--------------------------2--4-------------|
D|----------------2--4--5~--------5~---------|
A|------2--3--5~-----------------------------|
E|--3~---------------------------------------|

e|-------------------------------------------|
B|-------------------------------------------|
G|--------------------------2--4--5~---------|
D|----------------2--4--5~-------------------|
A|------2--3--5~-----------------------------|
E|--3~---------------------------------------|


Bridge:
    G                              D       
Now I don't want to talk about the things you overcame
   Em                                C
By dragging up the past I'll put you through it all again
             G                           D
I've got the greatest admiration for the way that you got through it
         Em                       C
Couldn't ask nobody else to do it better than you do it


Chorus: (2x)
G     D      Em    C
Stay...  hey/yeah... 
     G    D                      Em                C 
Stay you...  yeah/now that's the toughest thing to do

G D Em C (repeat to fade)



----------------
Unfortunately, the band Wood is not on UG's database and I can't find their 
official site or if they really exist. haha

http://www.amazon.com/Songs-From-Dawsons-Creek-ENHANCED/dp/B00000IMY8
Tap to rate this tab
# A B C D E F G H I J K L M N O P Q R S T U V W X Y Z