Song name
# A B C D E F G H I J K L M N O P Q R S T U V W X Y Z

Dax Riggs - Dog-headed Whore tab

Great song by former Acid Bath singer Dax Riggs

This is as far as I got by ear, I hope somebody will carry on.

There are some subtle bends here and there, youŽll know what I mean when youŽre 
listening to this song ;)


     E  E  E  Q    E  S  S  E     E  E  E  Q    E  E   E   
E||----------------------------|--------------------------|
B||-----------3----------------|-----------3--------------|
G||-----4----------4--2p-0h-2--|-----4--------------------|
D||--------2-------------------|--------2-----------------|
A||----------------------------|-------------------5h--7--|
E||--0-------------------------|--0-----------------------|


  E  E  E  Q    E  S  S  E     E  E  E  Q    E  E  E   
----------------------------|-------------------------|
-----------3----------------|-----------3-------------|
-----4----------4--2p-0h-2--|-----4-------------------|
--------2-------------------|--------2----------------|
----------------------------|-------------------5--7--|
--0-------------------------|--0----------------------|


  E  E  E  Q.     E   E     E  E  E  Q    E  S  S  E   
-------------------------|----------------------------|
-----------3-------------|-----------3----------------|
-----4-------------------|-----4----------4--2p-0h-2--|
--------2----------------|--------2-------------------|
------------------5h--7--|----------------------------|
--0----------------------|--0-------------------------|


  E  E  E  Q    E  S  S  E     E  E  E  Q    E  E  E   
----------------------------|-------------------------|
-----------3----------------|-----------3-------------|
-----4----------4--2p-0h-2--|-----4----------4--2--0--|
--------2-------------------|--------2----------------|
----------------------------|-------------------------|
--0-------------------------|--0----------------------|


   E  E  E  Q    E  E  E     E          
--------------------------|-----|-----||
-----------------------0--|--L--|-----||
------------4-------------|-----|-----||
---------2----------2-----|-----|-----||
------0----------0--------|-----|-----||
--/5----------------------|-----|-----||




Duration Legend
---------------
W - whole
H - half
Q - quarter
E - 8th
S - 16th


Tablature Legend
----------------
L - tied note
h - hammer on
p - pull off
Tap to rate this tab
# A B C D E F G H I J K L M N O P Q R S T U V W X Y Z