Song name
# A B C D E F G H I J K L M N O P Q R S T U V W X Y Z

Day After Tomorrow - Starry Heavens tab

Hello,

this is my first tab I ever wrote, because I'm a huge fan of Tales of Symphonia but 
tabbed it out so far.

The Japanese title of this song is: Soshite Boku ni Dekiru Koto.

I used this tutorial to tab the song:
http://www.youtube.com/watch?v=s1FGuAkQUXk

You'll only find the 'right hand' at the moment. Got lazy after a while xd.

Any comments? -> mathiasgezel@hotmail.com

Have fun!

e---0-2-3-5-7-5-5-3-7-5-5-3-8-7-7--0-10-8-7-5-3-5--7-8-7-5-7-5-3-7-------|
B------------------------------------------------------------------------|
G------------------------------------------------------------------------|
D------------------------------------------------------------------------|
A------------------------------------------------------------------------|
E------------------------------------------------------------------------|

e---0-2-3-5-7-5-5-3-7-5-5-3-8-7-7--0-10-8-7-5-3-5--7-7-5-3(p)2(h)3-------|
B------------------------------------------------------------------------|
G------------------------------------------------------------------------|
D------------------------------------------------------------------------|
A------------------------------------------------------------------------|
E------------------------------------------------------------------------|

bass missing

e-7-3-0-0-0-1-3-3-----0----------0-1-0-------0-0-0-1-3-3---0--------------|
B----3-----------1-1---3-1-3-1-3------3-3---------------1-1--3--1-3-1-3-1-|
G-------------------------------------------------------------------------|
D-------------------------------------------------------------------------|
A-------------------------------------------------------------------------|
E-------------------------------------------------------------------------|

e-------0-3-5-3-5-3-5-3-5-3-5-3-5-8-5-5-3-5-3-5-3-0-3-5------------------|
B---1-3------------------------------------------------------------------|
G------------------------------------------------------------------------|
D------------------------------------------------------------------------|
A------------------------------------------------------------------------|
E------------------------------------------------------------------------|

e---0-2-3-5-7-5-5-3-7-5-5-3-8-7-7--0-10-8-7-5-3-5--7-8-7-5-7-5-3-7-------|
B------------------------------------------------------------------------|
G------------------------------------------------------------------------|
D------------------------------------------------------------------------|
A------------------------------------------------------------------------|
E------------------------------------------------------------------------|

e---0-2-3-5-7-5-5-3-7-5-5-3-8-7-7--0-10-8-7-5-3-5--7-7-5-3-3-------------|
B------------------------------------------------------------------------|
G------------------------------------------------------------------------|
D------------------------------------------------------------------------|
A------------------------------------------------------------------------|
E------------------------------------------------------------------------|

e---0-2-3-5-7-5-5-3-7-5-5-3-8-7-7--0-10-8-7-5-3-5--7-8-7-5-7-5-3-7-------|
B------------------------------------------------------------------------|
G------------------------------------------------------------------------|
D------------------------------------------------------------------------|
A------------------------------------------------------------------------|
E------------------------------------------------------------------------|

e---0-2-3-5-7-5-5-3-7-5-5-3-8-7-7--0-10-8-7-5-3-5--7-7-5-3-3-------------|
B------------------------------------------------------------------------|
G------------------------------------------------------------------------|
D------------------------------------------------------------------------|
A------------------------------------------------------------------------|
E------------------------------------------------------------------------|
Tap to rate this tab
# A B C D E F G H I J K L M N O P Q R S T U V W X Y Z