Song name
# A B C D E F G H I J K L M N O P Q R S T U V W X Y Z

Day After Tomorrow - Starry Heavens tab

Just touch the strings on the 5th fret

e|----------/
B|---5~-----/
G|-----5~---/
D|-------5~-/
A|----------/
E|----------/

This are just the chord progression you'll find the picking by listening to the song

e|------------------------------------------------------|
B|------------------------------------------------------|
G|------------------b9----------------------------------|
D|---2---5---7---10-b9-2---5---9-7-5-5------------------|
A|---2---5---7---------2---5---9-7-5-5------------------|
E|---0---3---5---------0---3---7-5-3-3------------------|

It's just keyboard and then it starts

e|------------------------------------------------------|
B|------------------------------------------------------|
G|------------------------------------------------------|
D|---7---5---3------7---5-5-----------------------------|
A|---7---5---3------7---5-5-----------------------------|
E|---5---3---1------5---3-3-----------------------------|

Again just touch on the fret

e|----------/
B|---5~-----/
G|-----5~---/
D|-------5~-/
A|----------/
E|----------/

Then it's the verse

e|------------------------------------------------------|
B|------------------------------------------------------|
G|------------------------------------------------------|
D|---7---5---3------7---9-10---7---5--------------------|
A|---7---5---3------7---9-10---7---5--------------------|
E|---5---3---1------5---7-8----5---3--------------------|

This part is not exactly what he plays but still sounds good

e|------------------------------------------------------|
B|------------------------------------------------------|
G|------------------------------------------------------|(x2)
D|-------767-----767-----767-979-10910------------------|
A|---0-0-----0-0-----0-0--------------------------------|
E|------------------------------------------------------|
     . .     . .     . .

Just before the Chorus kicks in it goes...

e|-----------/
B|-----------/
G|-----------/
D|---2---5-7-/
A|---2---5-7-/
E|---0---3-5-/

Then the Chorus

e|------------------------------------------------------|
B|------------------------------------------------------|
G|------------------------------------------------------|
D|---2-2------7-7------2-2------7-7---------------------|
A|---2-2------7-7------2-2------7-7---------------------|
E|---0-0------5-5------0-0------5-5---------------------|

e|------------------------------------------------------|
B|------------------------------------------------------|
G|------------------b9----------------------------------|
D|---2---5---7---10-b9-2---5---9-7-5-5--4---------------|
A|---2---5---7---------2---5---9-7-5-5--4---------------|
E|---0---3---5---------0---3---7-5-3-3--2---------------|

e|------------------------------------------------------|
B|------------------------------------------------------|
G|------------------b9----------------------------------|
D|---2---5---7---10-b9-2---5---7---7---5----------------|
A|---2---5---7---------2---5---7------------------------|
E|---0---3---5---------0---3---5------------------------|

e|------------------------------------------------------|
B|------------------------------------------------------|
G|------------------b9----------------------------------|
D|---2---5---7---10-b9-2---5---9-7-5-5------------------|
A|---2---5---7---------2---5---9-7-5-5------------------|
E|---0---3---5---------0---3---7-5-3-3------------------|

Repeat the 2 last mesures then...

e|------------------------------------------------------|
B|------------------------------------------------------|
G|------------------------------------------------------|
D|---10---9---7---5---8---10-12---12---10---9---6-------|
A|--------------------6---8--10-------------------------|
E|------------------------------------------------------|

Repeat Verse & Chorus

e|---12~~~~~~~~-/
B|--------------/
G|--------------/
D|--------------/
A|--------------/
E|--------------/

I'm not finished findind the Solo but i'll post it when it's done

Repeat Chorus

Then repeat the 2 last mesures until fading (Only 1 time when they're Live)

Official Website     http://dat-net.jp/index.html
Tap to rate this tab
# A B C D E F G H I J K L M N O P Q R S T U V W X Y Z