Song name
# A B C D E F G H I J K L M N O P Q R S T U V W X Y Z

Day After Tomorrow - Stay In My Heart tab

Chorus
e|--------------------------------------------------|
B|--------------------------------------------------|
G|--------------------------------------------------|
D|---4---7---9---7-6-4---7---9---7-6----------------|    (x2)
A|---4---7---9---7-6-4---7---9---7-6----------------|
E|---2---5---7---5-4-2---5---7---5-4----------------|

e|---------/
B|---------/
G|---------/
D|---4-----/
A|---4-----/
E|---2-----/

Verse

e|--------------------------------------------------|
B|--------------------------------------------------|
G|--------------------------------------------------|
D|--------------------------------------------------|
A|---5------5---4---4------2---4--------------------|
E|--------------------------------------------------|

e|--------------------------------------------------|
B|--------------------------------------------------|
G|--------------------------------------------------|
D|--------------------------------------------------|
A|---9s15s5---4------0---h6s7-----------------------|
E|--------------------------------------------------|

e|--------------------------------------------------|
B|--------------------------------------------------|
G|-------------------9-9-9-9-9-9-9-9----------------|
D|---9-9-9-9-9-9-9-9-9-9-9-9-9-9-9-9----------------|
A|---7-7-7-7-7-7-7-7--------------------------------|
E|--------------------------------------------------|
     . . . . . . . . . . . . . . . .

Repeat Chorus (x3)

e|---------/
B|---------/
G|---------/
D|---4-----/
A|---4-----/
E|---2-----/

Repeat Verse

Repeat Chorus (x2)

e|---------/
B|---------/
G|---------/
D|---4-----/
A|---4-----/
E|---2-----/

Solo

e|--------------------------------------------------|
B|---3---3333---9----------------10-----------------|
G|---2---2222---8-play this fast-9--play this fast--|
D|--------------------------------------------------|
A|--------------------------------------------------|
E|--------------------------------------------------|

e|--------------------------------------------------|
B|---12----------------15---------------------------|
G|---11-play this fast-14-play this fast------------|
D|--------------------------------------------------|
A|--------------------------------------------------|
E|--------------------------------------------------|

e|---14-16-17-19---21-p19-15---s14-s16-s17----------|
B|--------------------------------------------------|
G|--------------------------------------------------|
D|--------------------------------------------------|
A|--------------------------------------------------|
E|--------------------------------------------------|

e|-----12--14--16--17--17-19---17-16h17p16-14-12-h14p12--|
B|---12--12--12--12--12----------------------------------|
G|-------------------------------------------------------|
D|-------------------------------------------------------|
A|-------------------------------------------------------|
E|-------------------------------------------------------|

e|---10-9-10-9-7-5------14------------------17------|
B|-------------------------15-12------12-15---------|
G|---------------------------------12---------------|
D|--------------------------------------------------|
A|--------------------------------------------------|
E|--------------------------------------------------|

e|---14-16-17-16-17-19-21-p19-15--------------------|
B|--------------------------------------------------|
G|--------------------------------------------------|
D|--------------------------------------------------|
A|--------------------------------------------------|
E|--------------------------------------------------|

Repeat Chorus until the end

There is a second Solo but I didn't figured it out.
I will though!!!

Official Website         http://dat-net.jp/index.html
Tap to rate this tab
 
# A B C D E F G H I J K L M N O P Q R S T U V W X Y Z