Song name
# A B C D E F G H I J K L M N O P Q R S T U V W X Y Z

Day Of Fire - Rain Song tab

Rain Song Tab 
Band- Day Of Fire
Song- Rain Song

Tune 1/2 Step Down

Intro: (Guitar 1 - Harmonics)         (Guitar 2 - Strum)
                                         E     D
e----------------(9)--(12)-------     e--0--0--2--|
B-------------(7)-----------------    B--0--0--3--|
G----------(0)------------------- 6x  G--0--0--2--|
D-------------------------------      D--2--2--0--|
A------(7)----------------------      A--2--2-----|
E--(7)--------------------------      E--0--0-----|

Verse: (Gutar 1 - Harmonics)  (Guitar 2 - Strum)
                                 E     D
e-------(9)--(12)-            e--0--0--2--|
B----(7)----------            B--0--0--3--|
G----------------- 8x         G--0--0--2--|
D-----------------            D--2--2--0--|
A-----------------            A--2--2-----|
E-----------------            E--0--0-----|

Chorus:
   E     G     A     C
e-----------------------|
B-----------------------|
G--------------2-----5--|
D--2-----5-----2-----5--|
A--2-----5-----0-----3--|
E--0-----3--------------|

Verse 2: Same as Verse 1

Chorus:^

Bridge:
   A     C     E     A     G
e-----------------------------|
B-----------------------------|
G--2-----5-----5-----2--------|
D--2-----5-----5-----2-----5--|
A--0-----3-----7-----0-----5--|
E--------------------------3--|

Bridge 2:(Piano Tabbed to Guitar)
   E                                                      E     D
e-----------------------------     e-----------(12)--  e--0--0--2--|
B-----------------------------     B-----------------  B--0--0--3--|
G----------------------------- 2x  G------(7)--------  G--0--0--2--|
D------4---5r4---0-----2---4--Then D--(5)------------  D--2--2--0--|
A----2---2-----2--------------     A-----------------  A--2--2-----|
E--0--------------------------     E-----------------  E--0--0-----|

Chorus:^  3x

Verse:(Music Only)

Ending: (Intro Harmonics)
Tap to rate this tab
# A B C D E F G H I J K L M N O P Q R S T U V W X Y Z