Song name
# A B C D E F G H I J K L M N O P Q R S T U V W X Y Z

Day Of Fire - Detainer tab

Band- Day Of Fire
Song- Detainer

Tuning---Dropped D (even the acoustic part)

Main Riff

 1 & 2 & 3 & 4 &
------------------------------------------------------------|
------------------------------------------------------------|
------------------------------------------------------------|
-4-4-4-2-5-5-5-2--------------4-4-4-2-5-5-7-11--------------|
-4-4-4-2-5-5-5-2--------------4-4-4-2-5-5-7-11--------------|
-4-4-4-2-5-5-5-2-3x-then-play-4-4-4-2-5-5-7-11--------------|
                              You hafta play this part really quick, sliding
                              up works good. If you can't play it you can just
                              play the main riff 4x.
Repeat 4 times then Palm Mute thru the verse (listen to the cd to get it exact)

Chorus
------------------------------------------------------------|
------------------------------------------------------------|
------------------------------------------------------------|
-4-4-4-4-2-2-2-2-7-7-7-7-11-11-11-11------------------------|
-4-4-4-4-2-2-2-2-7-7-7-7-11-11-11-11------------------------|
-4-4-4-4-2-2-2-2-7-7-7-7-11-11-11-11------------------------|

------------------------------------------------------------|
------------------------------------------------------------|
------------------------------------------------------------|
-4-4-4-4-2-2-2-2-7-7-7-7-11-10-9-7--------------------------|
-4-4-4-4-2-2-2-2-7-7-7-7-11-10-9-7--------------------------|
-4-4-4-4-2-2-2-2-7-7-7-7-11-10-9-7--------------------------|

Small lead in Chorus
---------------------------------------------------------------|
---------------------------------------------------------------|
-----10b-10b-10b-10bvvv----------------------------------------|
-----(hold the bend at 11 and vibrato)-------------------------|
---------------------------------------------------------------|
---------------------------------------------------------------|

Bridge (Acoustic Picking)
This is very close to the cd.  If you think it's wrong you might be playing
it a little too slow or something, I'm sure it's close.
--------------------------------------------------------------------------|
--------------------------------------------------------------------------|
-------6----------------4----------------9--------------------12----------|
-----4---4----------2-----2-----------7-----7------------11------11-------|
---4-------4------2---2-----2-------7---------7-------11----11------11----|
-4-----------/-2--------------2-/-7--------------/-11------------------11-|

Electric Part Played Behind Acoustic picking

---------------------------------------------------------------|
---------------------------------------------------------------|
---------------------------------------------------------------|
-4~~~~2~~~~7~~~~11~~~~-----------------------------------------|
-4~~~~2~~~~7~~~~11~~~~-----------------------------------------|
-4~~~~2~~~~7~~~~11~~~~-----------------------------------------|

Outro

------------------------------------------------------------|
------------------------------------------------------------|
------------------------------------------------------------|
-4-4-4-2-5-5-5-2--------------------------------------------|
-4-4-4-2-5-5-5-2--------------------------------------------|
-4-4-4-2-5-5-5-2--------------------------------------------|
Tap to rate this tab
# A B C D E F G H I J K L M N O P Q R S T U V W X Y Z