Song name
# A B C D E F G H I J K L M N O P Q R S T U V W X Y Z

Day Of Fire - Reap And Sow tab

Band- Day Of Fire
Song- Reap And Sow

Verse One
D#----------------------------------------------------------|
A#----------------------------------------------------------|
F#----------------------------------------------------------|
C#-7-7-7-4-------------7-7-7-4-------------7-7-7-2----------|
G#-7-7-7-4-------------7-7-7-4-------------7-7-7-2----------|
C#-7-7-7-4-------------7-7-7-4-------------7-7-7-2----------|
         LR                  LR                  LR

  ------------------------|
  ------------------------|
  ------------------------|
  ----7-7-7-4-------------|
  ----7-7-7-4-------------|
  ----7-7-7-4-------------|  X2
            LR


Transition from Verse One to Chorus One (Its hard to hear, but it is there)
D#-------|
A#-------|
F#-------|
C#-7-7-7-|
G#-7-7-7-|
C#-7-7-7-|


Chorus One
D#-------------------------------------------------|
A#-------------------------------------------------|
F#-------------------------------------------------|
C#-4-4-4-4-4-4-4-4-2-2-2-2-2-2-2-2-9-9-9-9-9-9-9-9-|
G#-4-4-4-4-4-4-4-4-2-2-2-2-2-2-2-2-9-9-9-9-9-9-9-9-|
C#-4-4-4-4-4-4-4-4-2-2-2-2-2-2-2-2-9-9-9-9-9-9-9-9-|


  -----------------------------------------------------|
  -----------------------------------------------------|
  -----------------------------------------------------|
  -7-7-7-7-7-7-7-7-4-4-4-4-4-4-4-4-2-2-2-2-2-2-2-2-9-x-|
  -7-7-7-7-7-7-7-7-4-4-4-4-4-4-4-4-2-2-2-2-2-2-2-2-9-x-| (feedback)
  -7-7-7-7-7-7-7-7-4-4-4-4-4-4-4-4-2-2-2-2-2-2-2-2-9-x-|


Verse Two, Guitar One
D#----------------------------------------------------------|
A#----------------------------------------------------------|
F#----------------------------------------------------------|
C#-7-7-7-4-------------7-7-7-4-------------7-7-7-2----------|
G#-7-7-7-4-------------7-7-7-4-------------7-7-7-2----------|
C#-7-7-7-4-------------7-7-7-4-------------7-7-7-2----------|
         LR                  LR                  LR


  ------------------------|
  ------------------------|
  ------------------------|
  ----7-7-7-4-------------|
  ----7-7-7-4-------------|
  ----7-7-7-4-------------|   X2


Verse Two, Guitar Two
D#----------------------------------------------------------|
A#-10-10-10-7-------------10-10-10-7------------10-10-10-5--|
F#----------------------------------------------------------|
C#----------------------------------------------------------|
G#----------------------------------------------------------|
C#----------------------------------------------------------|
            LR                     LR                    LR


  ------------------------|
  -----------10-10-10-7---|
  ------------------------|
  ------------------------|
  ------------------------|
  ------------------------|
                      LR


Chorus 2
D#-------------------------------------------------|
A#-------------------------------------------------|
F#-------------------------------------------------|
C#-4-4-4-4-4-4-4-4-2-2-2-2-2-2-2-2-9-9-9-9-9-9-9-9-|
G#-4-4-4-4-4-4-4-4-2-2-2-2-2-2-2-2-9-9-9-9-9-9-9-9-|
C#-4-4-4-4-4-4-4-4-2-2-2-2-2-2-2-2-9-9-9-9-9-9-9-9-|


  -------------------------------------------------|
  -------------------------------------------------|
  -------------------------------------------------|
  -7-7-7-7-7-7-7-7-4-4-4-4-4-4-4-4-2-2-2-2-2-2-2-2-|
  -7-7-7-7-7-7-7-7-4-4-4-4-4-4-4-4-2-2-2-2-2-2-2-2-|
  -7-7-7-7-7-7-7-7-4-4-4-4-4-4-4-4-2-2-2-2-2-2-2-2-|


  -------------------------------------------------|
  -------------------------------------------------|
  -------------------------------------------------|
  -9-9-9-9-9-9-9-9-2-2-2-2-2-2-2-2-4-4-4-4-4-4-4-4-|
  -9-9-9-9-9-9-9-9-0-0-0-0-0-0-0-0-4-4-4-4-4-4-4-4-|
  -9-9-9-9-9-9-9-9-----------------4-4-4-4-4-4-4-4-|


  -------------------------------------------------|
  -------------------------------------------------|
  -------------------------------------------------|
  -2-2-2-2-2-2-2-2-9-9-9-9-9-9-9-9-7-7-7-7-7-7-7-7-|
  -2-2-2-2-2-2-2-2-9-9-9-9-9-9-9-9-7-7-7-7-7-7-7-7-|
  -2-2-2-2-2-2-2-2-9-9-9-9-9-9-9-9-7-7-7-7-7-7-7-7-|


  -------------------------------------------------|
  -------------------------------------------------|
  -------------------------------------------------|
  -4-4-4-4-4-4-4-4-2-2-2-2-2-2-2-2-9-9-9-9-9-9-9-9-|
  -4-4-4-4-4-4-4-4-2-2-2-2-2-2-2-2-9-9-9-9-9-9-9-9-|
  -4-4-4-4-4-4-4-4-2-2-2-2-2-2-2-2-9-9-9-9-9-9-9-9-|


  -----------------|
  -----------------|
  -----------------|
  -9-9-9-9-9-9-9-9-|
  -x-x-x-x-x-x-x-x-|
  -9-9-9-9-9-9-9-9-|
  (^This is the only part I'm not sure of. If anybody
    comes up with something better, please make corrections)


Bridge Part One
D#------------------------------------------|
A#------------------------------------------|
F#------------------------------------------|
C#-0-----------------2-----------------4-x--|
G#-0-----------------2-----------------4-x--|
C#-0-----------------2-----------------4-x--|
   LR                LR                LR

(The timing on this next part is hard. The easiest
way to learn it is to play along with the CD.
Guitar One joins Guitar Two after Guitar Two
has played Bridge Part Two twice. So Itís Guitar
two alone two times, then Both Guitars together three times)


Bridge Part Two, Guitar One
D#----------------------------------------------------------|
A#----------------------------------------------------------|
F#----------------------------------------------------------|
C#-x-4--4-4-x4--x-4--4-4-2-4--------------------------------|
G#----------------------------------------------------------|
C#----------------------------------------------------------|  X3

Bridge Part Two, Guitar Two (Bass arranged for guitar)
D#----------------------------------------------------------|
A#----------------------------------------------------------|
F#----------------------------------------------------------|
C#----------------------------------------------------------|
G#----------------------------------------------------------|
C#-x-4--4-4-x4--x-4--4-4-2-4--------------------------------|  X5


(These next riffs are played together, and immediately following
 Bridge Part Two. The last "4-4-4"s in each riff are kind of
 hard to hear on the CD, but again, they are there)

Bridge Part Three, Guitar One
D#----------------------------------------------------------|
A#----------------------------------------------------------|
F#----------------------------------------------------------|
C#-x-4--4-4-x4--x-4--4-4-4----------------------------------|
G#----------------------------------------------------------|
C#----------------------------------------------------------|

Bridge Part Three, Guitar Two (Bass arranged for guitar)
D#----------------------------------------------------------|
A#----------------------------------------------------------|
F#----------------------------------------------------------|
C#----------------------------------------------------------|
G#----------------------------------------------------------|
C#-x-4--4-4-x4--x-4--4-4-4----------------------------------|


Bridge Part Four, Guitar One
D#---------------------------------------------------------|
A#---------------------------------------------------------|
F#---------------------------------------------------------|
C#-0-0-0-0-0-0-0-0-0-0-0-0-0-0-0-0-2-2-2-2-2-2-2-2-2-2-2-2-|
G#-0-0-0-0-0-0-0-0-0-0-0-0-0-0-0-0-2-2-2-2-2-2-2-2-2-2-2-2-|
C#-0-0-0-0-0-0-0-0-0-0-0-0-0-0-0-0-2-2-2-2-2-2-2-2-2-2-2-2-|
           * *     * *     * *         * *     * *     * *

  -------------------------------------------------|
  -------------------------------------------------|
  -------------------------------------------------|
  -2-2-2-2-0-0-0-0-0-0-0-0-0-0-0-0-0-0-0-0-2-2-2-2-|
  -2-2-2-2-0-0-0-0-0-0-0-0-0-0-0-0-0-0-0-0-2-2-2-2-|
  -2-2-2-2-0-0-0-0-0-0-0-0-0-0-0-0-0-0-0-0-2-2-2-2-|
       * *

  -------------------------|
  -------------------------|
  -------------------------|
  -2-2-2-2-2-2-2-2-2-2-2-2-|
  -2-2-2-2-2-2-2-2-2-2-2-2-|
  -2-2-2-2-2-2-2-2-2-2-2-2-|


Chorus Three
D#-------------------------------------------------|
A#-------------------------------------------------|
F#-------------------------------------------------|
C#-4-4-4-4-4-4-4-4-2-2-2-2-2-2-2-2-9-9-9-9-9-9-9-9-|
G#-4-4-4-4-4-4-4-4-2-2-2-2-2-2-2-2-9-9-9-9-9-9-9-9-|
C#-4-4-4-4-4-4-4-4-2-2-2-2-2-2-2-2-9-9-9-9-9-9-9-9-|


  -------------------------------------------------|
  -------------------------------------------------|
  -------------------------------------------------|
  -7-7-7-7-7-7-7-7-4-4-4-4-4-4-4-4-2-2-2-2-2-2-2-2-|
  -7-7-7-7-7-7-7-7-4-4-4-4-4-4-4-4-2-2-2-2-2-2-2-2-|
  -7-7-7-7-7-7-7-7-4-4-4-4-4-4-4-4-2-2-2-2-2-2-2-2-|


  -------------------------------------------------|
  -------------------------------------------------|
  -------------------------------------------------|
  -9-9-9-9-9-9-9-9-2-2-2-2-2-2-2-2-4-4-4-4-4-4-4-4-|
  -9-9-9-9-9-9-9-9-0-0-0-0-0-0-0-0-4-4-4-4-4-4-4-4-|
  -9-9-9-9-9-9-9-9-----------------4-4-4-4-4-4-4-4-|


  -------------------------------------------------|
  -------------------------------------------------|
  -------------------------------------------------|
  -2-2-2-2-2-2-2-2-9-9-9-9-9-9-9-9-7-7-7-7-7-7-7-7-|
  -2-2-2-2-2-2-2-2-9-9-9-9-9-9-9-9-7-7-7-7-7-7-7-7-|
  -2-2-2-2-2-2-2-2-9-9-9-9-9-9-9-9-7-7-7-7-7-7-7-7-|


  ------------------------------------------|
  ------------------------------------------|
  ------------------------------------------|
  -4-4-4-4-4-4-4-4-2-2-2-2-2-2-2-2-9--|-4-x-|
  -4-4-4-4-4-4-4-4-2-2-2-2-2-2-2-2-9--|-4-x-|
  -4-4-4-4-4-4-4-4-2-2-2-2-2-2-2-2-9--|-4-x-|
                                  (^LR for five measures)
Tap to rate this tab
 
# A B C D E F G H I J K L M N O P Q R S T U V W X Y Z