Song name
# A B C D E F G H I J K L M N O P Q R S T U V W X Y Z

Day Of Fire - Frustrating tab

Song: Frustrating
Artist: Day of Fire
Album: Cut & Move

Drop C (CGCFAD)

i couldn't find a tab for this song anywhere on the whole stinkin' internet so i asked 
teacher for help. listen to the song to figure out how many times to play, rhythm, etc.

Intro
D[---------------------]
A[o-------------------o]
F[---------------------]
C[---0-0---------------]
G[0--0-0--(bend @ 3)--o]
C[---0-0---------------]

Main Riff
D[-------------------------------------------]
A[-------------------------------------------]
F[--7-7-7---------5-5-5--------3-3-3---------]
C[--7-7-7---------5-5-5--------3-3-3---------]
G[--5-5-5---------3-3-3--------1-1-1---------]
C[---------0-3-5--------0-3-5---------0-3-5--]

D[--------------------]
A[--------------------]
F[--------------------]
C[--5-5--3--5-6--5-3--]
G[--5-5--3--5-6--5-3--]
C[--5-5--3--5-6--5-3--]

Verse
D[----------------------------]
A[----------------------------]
F[-------7-5-7--7-5-7--7-5-7--]
C[--0-0-----------------------]
G[--0-0-----------------------]
C[--0-0-----------------------]

Chorus
D]-----------------]
A]-----------------]
F]--7---5----------]
C]--7---5---3---5--]
G]--5---3---3---5--]
C]----------3---5--]

Bridge
D[-------------------------------------------------]
A[-------------------------------------------------]
F[-------7-5-7-------7-5-7-------7-5-7-------------]
C[--0-0---------3-3---------5-5----------(8)-(10)--]
G[--0-0---------3-3---------5-5----------(8)-(10)--]
C[--0-0---------3-3---------5-5----------(8)-(10)--]
Tap to rate this tab
 
# A B C D E F G H I J K L M N O P Q R S T U V W X Y Z