Song name
# A B C D E F G H I J K L M N O P Q R S T U V W X Y Z

Day Of The Sword - Blood Stained Diamond chords

Highlighted       Show chord diagrams
Day Of the Sword - Blood Stained Diamond

This is the best way I found to play the variations of F, or else its pretty hard =)

     F       Fsus2      Fsus4       F
e|---1-------1----------1-----------1------------------------------------|
B|---1-------1----------1-----------1------------------------------------|
G|---2-------0----------3-----------2------------------------------------|
D|---3-------3----------3-----------3------------------------------------|
A|-----------------------------------------------------------------------|
E|-----------------------------------------------------------------------|

F               Fsus2      
British soldier from Liverpool. 
       Fsus4       F
Just a boy of nineteen.
F           Fsus2   
IRA snipers aim was true. 
    Fsus4              F
The shot was short and clean. 
F             Fsus2  
Masked men of orange. 
    Fsus4      F
Red hand commandos. 
     F               Fsus2    
Bomb three dead in a pub. 
  Fsus4             F
Revenge is all they know. 
F              Fsus2     
Daddy´s little girl. 
         Fsus4       F
Sent for milk by her mother. 
      F             Fsus2 
To be killed at age twelve. 
            Fsus4        F
The plastic bullet slays another

    Am
The children weep the tears. 
     C                G
Of a blood stained emerald. 
        Am
All the funerals through the years. 
C                G
Blood stained emerald. 
    Am
The children weep the tears. 
     C                G
Of a blood stained emerald. 
        Am
All the funerals through the years. 
C                G
Blood stained emerald. 


Have mercy on the irish. 
In Northern Ireland. 
Armored cars are all around. 
And deadly bombs in London town. 
IRA - UDA. 
SAS - it´s all a mess. 
Brothers with different names. 
Playing mason and commie games. 
It´s whites killing whites. 
Catholic of protestant. 
The same blood the same face. 
Of the beautiful Celtic race

The children weep the tears. 
Of a blood stained emerald. 
All the funerals through the years. 
Blood stained emerald. 
The children weep the tears. 
Of a blood stained emerald. 
All the funerals through the years. 
Blood stained emerald

Solo:
e|-----------------------------------------------------------------------14-15---|
B|-------------------------------------------------------------------------------|
G|-------------------------------------------------------------------------------|
D|--------------------------5---------7------------5-----------------------------|
A|--3--------------------------5--3------7--5---3----5----5--3-------------------|
E|-----5-3---------------------------------------------5-------3--1--------------|

Murder for a border line. 
Still the feud of ´94. 
Children blown away by a mine. 
Stop this obscene war. 
Bury the bad traditions. 
Settle the church divisions

e|-8-8-9--8-8-8-9-9--8-8/9-6/8-4/6-2/4-1/2----8-8-9--8-8-8-9-9--9/11-11-11/13-9/11-9-8~-|
B|--------------------------------------------------------------------------------------|
G|--------------------------------------------------------------------------------------|
D|--------------------------------------------------------------------------------------|
A|--------------------------------------------------------------------------------------|
E|--------------------------------------------------------------------------------------| x2

The children weep the tears. 
Of a blood stained emerald. 
All the funerals through the years. 
Blood stained emerald. 
The children weep the tears. 
Of a blood stained emerald. 
All the funerals through the years. 
Blood stained emerald


F       Fsus2      Fsus4       F

e|---------------------------------------------------------------------------|
B|---------------------------------------------------------------------------|
G|---------------------------------------------------------------------------|
D|------3-5-7-5----8-7-3-----------------------------------------------------|
A|--3-5------------------3-5-3-----------------------------------------------|
E|---------------------------------------------------------------------------| Till end

Hear their cry for peace. 
A truce for unity. 
The harps and pipes echo. 
In Belfast and Derry city.
Once foes now come together. 
Racial kinsman are forever

Irish unity, 
Christian unity, 
Irish unity. 
Is white unity. 
White unity. 
Tap to rate this tab
 
# A B C D E F G H I J K L M N O P Q R S T U V W X Y Z